  0
SECTION
  2
HEADER
  9
$ACADVER
  1
AC1004
  9
$EXTMIN
 10
-0.4128
 20
0.0000
  9
$EXTMAX
 10
14.4720
 20
6.5463
  9
$LIMMIN
 10
-0.4128
 20
0.0000
  9
$LIMMAX
 10
14.4720
 20
6.5463
  9
$INSBASE
 10
0.0
 20
0.0
  9
$VIEWCTR
 10
7.21903
 20
4.5
  9
$VIEWSIZE
 40
9.0
  9
$SNAPMODE
 70
     0
  9
$SNAPUNIT
 10
1.0
 20
1.0
  9
$SNAPBASE
 10
0.0
 20
0.0
  9
$SNAPANG
 50
0.0
  9
$SNAPSTYLE
 70
     0
  9
$SNAPISOPAIR
 70
     0
  9
$GRIDMODE
 70
     0
  9
$GRIDUNIT
 10
0.0
 20
0.0
  9
$ORTHOMODE
 70
     0
  9
$REGENMODE
 70
     1
  9
$FILLMODE
 70
     1
  9
$QTEXTMODE
 70
     0
  9
$DRAGMODE
 70
     2
  9
$LTSCALE
 40
1.0
  9
$OSMODE
 70
     0
  9
$ATTMODE
 70
     1
  9
$TEXTSIZE
 40
0.2
  9
$TRACEWID
 40
0.05
  9
$TEXTSTYLE
  7
STANDARD
  9
$CLAYER
  8
0
  9
$CELTYPE
  6
BYLAYER
  9
$CECOLOR
 62
   256
  9
$DIMSCALE
 40
1.0
  9
$DIMASZ
 40
0.18
  9
$DIMEXO
 40
0.0625
  9
$DIMDLI
 40
0.38
  9
$DIMRND
 40
0.0
  9
$DIMDLE
 40
0.0
  9
$DIMEXE
 40
0.18
  9
$DIMTP
 40
0.0
  9
$DIMTM
 40
0.0
  9
$DIMTXT
 40
0.18
  9
$DIMCEN
 40
0.09
  9
$DIMTSZ
 40
0.0
  9
$DIMTOL
 70
     0
  9
$DIMLIM
 70
     0
  9
$DIMTIH
 70
     1
  9
$DIMTOH
 70
     1
  9
$DIMSE1
 70
     0
  9
$DIMSE2
 70
     0
  9
$DIMTAD
 70
     0
  9
$DIMZIN
 70
     0
  9
$DIMBLK
  1

  9
$DIMASO
 70
     1
  9
$DIMSHO
 70
     0
  9
$DIMPOST
  1

  9
$DIMAPOST
  1

  9
$DIMALT
 70
     0
  9
$DIMALTD
 70
     2
  9
$DIMALTF
 40
25.4
  9
$DIMLFAC
 40
1.0
  9
$LUNITS
 70
     2
  9
$LUPREC
 70
     4
  9
$AXISMODE
 70
     0
  9
$AXISUNIT
 10
0.0
 20
0.0
  9
$SKETCHINC
 40
0.1
  9
$FILLETRAD
 40
0.0
  9
$AUNITS
 70
     0
  9
$AUPREC
 70
     0
  9
$MENU
  1
acad
  9
$ELEVATION
 40
0.0
  9
$THICKNESS
 40
0.0
  9
$VIEWDIR
 10
0.0
 20
0.0
 30
1.0
  9
$LIMCHECK
 70
     0
  9
$BLIPMODE
 70
     1
  9
$CHAMFERA
 40
0.0
  9
$CHAMFERB
 40
0.0
  9
$FASTZOOM
 70
     1
  9
$SKPOLY
 70
     0
  9
$TDCREATE
 40
2447222.5666886573
  9
$TDUPDATE
 40
2447222.5666886573
  9
$TDINDWG
 40
0.0000000000
  9
$TDUSRTIMER
 40
0.0000000000
  9
$USRTIMER
 70
     1
  9
$ANGBASE
 50
0.0
  9
$ANGDIR
 70
     0
  9
$PDMODE
 70
     0
  9
$PDSIZE
 40
0.0
  9
$PLINEWID
 40
0.0
  9
$COORDS
 70
     0
  9
$SPLFRAME
 70
     0
  9
$SPLINESEGS
 70
     8
  9
$ATTDIA
 70
     0
  9
$ATTREQ
 70
     1
  9
$USERI1
 70
     0
  9
$USERI2
 70
     0
  9
$USERI3
 70
     0
  9
$USERI4
 70
     0
  9
$USERI5
 70
     0
  9
$USERR1
 40
0.0
  9
$USERR2
 40
0.0
  9
$USERR3
 40
0.0
  9
$USERR4
 40
0.0
  9
$USERR5
 40
0.0
  0
ENDSEC
  0
SECTION
  2
TABLES
  0
TABLE
  2
LTYPE
 70
     9
  0
LTYPE
  2
CONTINUOUS
 70
    64
  3
Solid line
 72
    65
 73
     0
 40
0.0
  0
LTYPE
  2
DASHED
 70
    64
  3
__ __ __ __ __ __ __ __ __ __ __ __ __ __ __
 72
    65
 73
     2
 40
0.75
 49
0.5
 49
-0.25
  0
LTYPE
  2
HIDDEN
 70
    64
  3
_ _ _ _ _ _ _ _ _ _ _ _ _ _ _ _ _ _ _ _ _ _ _
 72
    65
 73
     2
 40
0.375
 49
0.25
 49
-0.125
  0
LTYPE
  2
CENTER
 70
    64
  3
____ _ ____ _ ____ _ ____ _ ____ _ ____ _ ____
 72
    65
 73
     4
 40
2.0
 49
1.25
 49
-0.25
 49
0.25
 49
-0.25
  0
LTYPE
  2
PHANTOM
 70
    64
  3
_____ _ _ _____ _ _ _____ _ _ _____ _ _ ____
 72
    65
 73
     6
 40
2.5
 49
1.25
 49
-0.25
 49
0.25
 49
-0.25
 49
0.25
 49
-0.25
  0
LTYPE
  2
DOT
 70
    64
  3
...............................................
 72
    65
 73
     2
 40
0.25
 49
0.0
 49
-0.25
  0
LTYPE
  2
DASHDOT
 70
    64
  3
__ . __ . __ . __ . __ . __ . __ . __ . __ . __
 72
    65
 73
     4
 40
1.0
 49
0.5
 49
-0.25
 49
0.0
 49
-0.25
  0
LTYPE
  2
BORDER
 70
    64
  3
__ __ . __ __ . __ __ . __ __ . __ __ . __ __
 72
    65
 73
     6
 40
1.75
 49
0.5
 49
-0.25
 49
0.5
 49
-0.25
 49
0.0
 49
-0.25
  0
LTYPE
  2
DIVIDE
 70
    64
  3
__ . . __ . . __ . . __ . . __ . . __ . . __
 72
    65
 73
     6
 40
1.25
 49
0.5
 49
-0.25
 49
0.0
 49
-0.25
 49
0.0
 49
-0.25
  0
ENDTAB
  0
TABLE
  2
LAYER
 70
    153
  0
LAYER
  2
FloorPlan
 70
 64
 62
     1
  6
CONTINUOUS
  0
LAYER
  2
Lot Line
 70
 64
 62
     1
  6
CONTINUOUS
  0
LAYER
  2
Windows
 70
 64
 62
     1
  6
CONTINUOUS
  0
ENDTAB
  0
ENDSEC
  0
SECTION
  2
BLOCKS
  0
ENDSEC
  0
SECTION
  2
ENTITIES
  0
POLYLINE
  8
FloorPlan
 62
     1
 66
     1
  6
CONTINUOUS
  0
VERTEX
  8
FloorPlan
 62
     1
  6
CONTINUOUS
 10
14.2564
 20
2.7862
  0
VERTEX
  8
FloorPlan
 62
     1
  6
CONTINUOUS
 10
14.3384
 20
2.7862
  0
SEQEND
  8
FloorPlan
  0
POLYLINE
  8
FloorPlan
 62
     1
 66
     1
  6
CONTINUOUS
  0
VERTEX
  8
FloorPlan
 62
     1
  6
CONTINUOUS
 10
14.2530
 20
3.2979
  0
VERTEX
  8
FloorPlan
 62
     1
  6
CONTINUOUS
 10
14.3379
 20
3.2979
  0
SEQEND
  8
FloorPlan
  0
POLYLINE
  8
FloorPlan
 62
     1
 66
     1
  6
CONTINUOUS
  0
VERTEX
  8
FloorPlan
 62
     1
  6
CONTINUOUS
 10
14.2530
 20
5.2201
  0
VERTEX
  8
FloorPlan
 62
     1
  6
CONTINUOUS
 10
14.3383
 20
5.2201
  0
SEQEND
  8
FloorPlan
  0
POLYLINE
  8
FloorPlan
 62
     1
 66
     1
  6
CONTINUOUS
  0
VERTEX
  8
FloorPlan
 62
     1
  6
CONTINUOUS
 10
14.2530
 20
5.7264
  0
VERTEX
  8
FloorPlan
 62
     1
  6
CONTINUOUS
 10
14.3383
 20
5.7264
  0
SEQEND
  8
FloorPlan
  0
POLYLINE
  8
FloorPlan
 62
     1
 66
     1
  6
CONTINUOUS
  0
VERTEX
  8
FloorPlan
 62
     1
  6
CONTINUOUS
 10
14.2530
 20
6.1577
  0
VERTEX
  8
FloorPlan
 62
     1
  6
CONTINUOUS
 10
10.8494
 20
6.1577
  0
SEQEND
  8
FloorPlan
  0
POLYLINE
  8
FloorPlan
 62
     1
 66
     1
  6
CONTINUOUS
  0
VERTEX
  8
FloorPlan
 62
     1
  6
CONTINUOUS
 10
12.5653
 20
2.3509
  0
VERTEX
  8
FloorPlan
 62
     1
  6
CONTINUOUS
 10
12.5653
 20
2.2702
  0
SEQEND
  8
FloorPlan
  0
POLYLINE
  8
FloorPlan
 62
     1
 66
     1
  6
CONTINUOUS
  0
VERTEX
  8
FloorPlan
 62
     1
  6
CONTINUOUS
 10
13.5498
 20
2.3513
  0
VERTEX
  8
FloorPlan
 62
     1
  6
CONTINUOUS
 10
13.5498
 20
2.2672
  0
SEQEND
  8
FloorPlan
  0
POLYLINE
  8
FloorPlan
 62
     1
 66
     1
  6
CONTINUOUS
  0
VERTEX
  8
FloorPlan
 62
     1
  6
CONTINUOUS
 10
13.8030
 20
2.3509
  0
VERTEX
  8
FloorPlan
 62
     1
  6
CONTINUOUS
 10
13.8030
 20
2.2672
  0
SEQEND
  8
FloorPlan
  0
POLYLINE
  8
FloorPlan
 62
     1
 66
     1
  6
CONTINUOUS
  0
VERTEX
  8
FloorPlan
 62
     1
  6
CONTINUOUS
 10
14.1499
 20
2.3509
  0
VERTEX
  8
FloorPlan
 62
     1
  6
CONTINUOUS
 10
14.1499
 20
2.2672
  0
SEQEND
  8
FloorPlan
  0
POLYLINE
  8
FloorPlan
 62
     1
 66
     1
  6
CONTINUOUS
  0
VERTEX
  8
FloorPlan
 62
     1
  6
CONTINUOUS
 10
10.8494
 20
2.7822
  0
VERTEX
  8
FloorPlan
 62
     1
  6
CONTINUOUS
 10
10.7456
 20
2.7822
  0
SEQEND
  8
FloorPlan
  0
POLYLINE
  8
FloorPlan
 62
     1
 66
     1
  6
CONTINUOUS
  0
VERTEX
  8
FloorPlan
 62
     1
  6
CONTINUOUS
 10
10.8494
 20
3.2885
  0
VERTEX
  8
FloorPlan
 62
     1
  6
CONTINUOUS
 10
10.7456
 20
3.2885
  0
SEQEND
  8
FloorPlan
  0
POLYLINE
  8
FloorPlan
 62
     1
 66
     1
  6
CONTINUOUS
  0
VERTEX
  8
FloorPlan
 62
     1
  6
CONTINUOUS
 10
10.8494
 20
4.7794
  0
VERTEX
  8
FloorPlan
 62
     1
  6
CONTINUOUS
 10
10.7444
 20
4.7794
  0
SEQEND
  8
FloorPlan
  0
POLYLINE
  8
FloorPlan
 62
     1
 66
     1
  6
CONTINUOUS
  0
VERTEX
  8
FloorPlan
 62
     1
  6
CONTINUOUS
 10
14.3374
 20
2.2665
  0
VERTEX
  8
FloorPlan
 62
     1
  6
CONTINUOUS
 10
14.3374
 20
6.2421
  0
SEQEND
  8
FloorPlan
  0
POLYLINE
  8
FloorPlan
 62
     1
 66
     1
  6
CONTINUOUS
  0
VERTEX
  8
FloorPlan
 62
     1
  6
CONTINUOUS
 10
12.5653
 20
2.3509
  0
VERTEX
  8
FloorPlan
 62
     1
  6
CONTINUOUS
 10
10.8494
 20
2.3591
  0
SEQEND
  8
FloorPlan
  0
POLYLINE
  8
FloorPlan
 62
     1
 66
     1
  6
CONTINUOUS
  0
VERTEX
  8
FloorPlan
 62
     1
  6
CONTINUOUS
 10
14.2530
 20
6.1577
  0
VERTEX
  8
FloorPlan
 62
     1
  6
CONTINUOUS
 10
14.2530
 20
2.3509
  0
VERTEX
  8
FloorPlan
 62
     1
  6
CONTINUOUS
 10
14.2530
 20
2.3509
  0
SEQEND
  8
FloorPlan
  0
POLYLINE
  8
FloorPlan
 62
     1
 66
     1
  6
CONTINUOUS
  0
VERTEX
  8
FloorPlan
 62
     1
  6
CONTINUOUS
 10
13.8030
 20
2.3509
  0
VERTEX
  8
FloorPlan
 62
     1
  6
CONTINUOUS
 10
13.5498
 20
2.3513
  0
SEQEND
  8
FloorPlan
  0
POLYLINE
  8
FloorPlan
 62
     1
 66
     1
  6
CONTINUOUS
  0
VERTEX
  8
FloorPlan
 62
     1
  6
CONTINUOUS
 10
14.3374
 20
2.2665
  0
VERTEX
  8
FloorPlan
 62
     1
  6
CONTINUOUS
 10
14.1499
 20
2.2672
  0
SEQEND
  8
FloorPlan
  0
POLYLINE
  8
FloorPlan
 62
     1
 66
     1
  6
CONTINUOUS
  0
VERTEX
  8
FloorPlan
 62
     1
  6
CONTINUOUS
 10
13.8030
 20
2.2672
  0
VERTEX
  8
FloorPlan
 62
     1
  6
CONTINUOUS
 10
13.5498
 20
2.2672
  0
SEQEND
  8
FloorPlan
  0
POLYLINE
  8
FloorPlan
 62
     1
 66
     1
  6
CONTINUOUS
  0
VERTEX
  8
FloorPlan
 62
     1
  6
CONTINUOUS
 10
14.2530
 20
2.3509
  0
VERTEX
  8
FloorPlan
 62
     1
  6
CONTINUOUS
 10
14.1499
 20
2.3509
  0
SEQEND
  8
FloorPlan
  0
POLYLINE
  8
FloorPlan
 62
     1
 66
     1
  6
CONTINUOUS
  0
VERTEX
  8
FloorPlan
 62
     1
  6
CONTINUOUS
 10
12.5653
 20
2.3509
  0
VERTEX
  8
FloorPlan
 62
     1
  6
CONTINUOUS
 10
13.5498
 20
2.3509
  0
SEQEND
  8
FloorPlan
  0
POLYLINE
  8
FloorPlan
 62
     1
 66
     1
  6
CONTINUOUS
  0
VERTEX
  8
FloorPlan
 62
     1
  6
CONTINUOUS
 10
12.5653
 20
2.3300
  0
VERTEX
  8
FloorPlan
 62
     1
  6
CONTINUOUS
 10
13.5498
 20
2.3300
  0
SEQEND
  8
FloorPlan
  0
POLYLINE
  8
FloorPlan
 62
     1
 66
     1
  6
CONTINUOUS
  0
VERTEX
  8
FloorPlan
 62
     1
  6
CONTINUOUS
 10
10.8494
 20
2.3591
  0
VERTEX
  8
FloorPlan
 62
     1
  6
CONTINUOUS
 10
10.8494
 20
2.3591
  0
SEQEND
  8
FloorPlan
  0
POLYLINE
  8
FloorPlan
 62
     1
 66
     1
  6
CONTINUOUS
  0
VERTEX
  8
FloorPlan
 62
     1
  6
CONTINUOUS
 10
10.8494
 20
2.3591
  0
VERTEX
  8
FloorPlan
 62
     1
  6
CONTINUOUS
 10
10.8494
 20
3.7855
  0
SEQEND
  8
FloorPlan
  0
POLYLINE
  8
FloorPlan
 62
     1
 66
     1
  6
CONTINUOUS
  0
VERTEX
  8
FloorPlan
 62
     1
  6
CONTINUOUS
 10
10.7657
 20
3.7855
  0
VERTEX
  8
FloorPlan
 62
     1
  6
CONTINUOUS
 10
10.7657
 20
4.7794
  0
SEQEND
  8
FloorPlan
  0
POLYLINE
  8
FloorPlan
 62
     1
 66
     1
  6
CONTINUOUS
  0
VERTEX
  8
FloorPlan
 62
     1
  6
CONTINUOUS
 10
10.8494
 20
4.7794
  0
VERTEX
  8
FloorPlan
 62
     1
  6
CONTINUOUS
 10
10.8494
 20
5.2295
  0
SEQEND
  8
FloorPlan
  0
POLYLINE
  8
FloorPlan
 62
     1
 66
     1
  6
CONTINUOUS
  0
VERTEX
  8
FloorPlan
 62
     1
  6
CONTINUOUS
 10
10.8494
 20
5.5576
  0
VERTEX
  8
FloorPlan
 62
     1
  6
CONTINUOUS
 10
10.8494
 20
6.1577
  0
SEQEND
  8
FloorPlan
  0
POLYLINE
  8
FloorPlan
 62
     1
 66
     1
  6
CONTINUOUS
  0
VERTEX
  8
FloorPlan
 62
     1
  6
CONTINUOUS
 10
10.7462
 20
2.3509
  0
VERTEX
  8
FloorPlan
 62
     1
  6
CONTINUOUS
 10
10.7456
 20
5.2295
  0
SEQEND
  8
FloorPlan
  0
POLYLINE
  8
FloorPlan
 62
     1
 66
     1
  6
CONTINUOUS
  0
VERTEX
  8
FloorPlan
 62
     1
  6
CONTINUOUS
 10
10.7452
 20
5.5576
  0
VERTEX
  8
FloorPlan
 62
     1
  6
CONTINUOUS
 10
10.7462
 20
6.1577
  0
SEQEND
  8
FloorPlan
  0
POLYLINE
  8
FloorPlan
 62
     1
 66
     1
  6
CONTINUOUS
  0
VERTEX
  8
FloorPlan
 62
     1
  6
CONTINUOUS
 10
10.7462
 20
6.1577
  0
VERTEX
  8
FloorPlan
 62
     1
  6
CONTINUOUS
 10
7.7464
 20
6.1577
  0
SEQEND
  8
FloorPlan
  0
POLYLINE
  8
FloorPlan
 62
     1
 66
     1
  6
CONTINUOUS
  0
VERTEX
  8
FloorPlan
 62
     1
  6
CONTINUOUS
 10
10.7462
 20
2.3509
  0
VERTEX
  8
FloorPlan
 62
     1
  6
CONTINUOUS
 10
7.7464
 20
2.3509
  0
SEQEND
  8
FloorPlan
  0
POLYLINE
  8
FloorPlan
 62
     1
 66
     1
  6
CONTINUOUS
  0
VERTEX
  8
FloorPlan
 62
     1
  6
CONTINUOUS
 10
9.5134
 20
6.1577
  0
VERTEX
  8
FloorPlan
 62
     1
  6
CONTINUOUS
 10
9.5134
 20
6.2399
  0
SEQEND
  8
FloorPlan
  0
POLYLINE
  8
FloorPlan
 62
     1
 66
     1
  6
CONTINUOUS
  0
VERTEX
  8
FloorPlan
 62
     1
  6
CONTINUOUS
 10
9.0121
 20
6.1577
  0
VERTEX
  8
FloorPlan
 62
     1
  6
CONTINUOUS
 10
9.0121
 20
6.2399
  0
SEQEND
  8
FloorPlan
  0
POLYLINE
  8
FloorPlan
 62
     1
 66
     1
  6
CONTINUOUS
  0
VERTEX
  8
FloorPlan
 62
     1
  6
CONTINUOUS
 10
9.5132
 20
2.3518
  0
VERTEX
  8
FloorPlan
 62
     1
  6
CONTINUOUS
 10
9.5132
 20
2.2728
  0
SEQEND
  8
FloorPlan
  0
POLYLINE
  8
FloorPlan
 62
     1
 66
     1
  6
CONTINUOUS
  0
VERTEX
  8
FloorPlan
 62
     1
  6
CONTINUOUS
 10
9.0118
 20
2.3518
  0
VERTEX
  8
FloorPlan
 62
     1
  6
CONTINUOUS
 10
9.0118
 20
2.2728
  0
SEQEND
  8
FloorPlan
  0
POLYLINE
  8
FloorPlan
 62
     1
 66
     1
  6
CONTINUOUS
  0
VERTEX
  8
FloorPlan
 62
     1
  6
CONTINUOUS
 10
7.7053
 20
2.3509
  0
VERTEX
  8
FloorPlan
 62
     1
  6
CONTINUOUS
 10
5.8560
 20
2.3509
  0
SEQEND
  8
FloorPlan
  0
POLYLINE
  8
FloorPlan
 62
     1
 66
     1
  6
CONTINUOUS
  0
VERTEX
  8
FloorPlan
 62
     1
  6
CONTINUOUS
 10
7.4998
 20
6.1577
  0
VERTEX
  8
FloorPlan
 62
     1
  6
CONTINUOUS
 10
7.4998
 20
6.2399
  0
SEQEND
  8
FloorPlan
  0
POLYLINE
  8
FloorPlan
 62
     1
 66
     1
  6
CONTINUOUS
  0
VERTEX
  8
FloorPlan
 62
     1
  6
CONTINUOUS
 10
7.7053
 20
6.1577
  0
VERTEX
  8
FloorPlan
 62
     1
  6
CONTINUOUS
 10
7.0067
 20
6.1577
  0
VERTEX
  8
FloorPlan
 62
     1
  6
CONTINUOUS
 10
7.0067
 20
6.2399
  0
SEQEND
  8
FloorPlan
  0
POLYLINE
  8
FloorPlan
 62
     1
 66
     1
  6
CONTINUOUS
  0
VERTEX
  8
FloorPlan
 62
     1
  6
CONTINUOUS
 10
7.4995
 20
2.3518
  0
VERTEX
  8
FloorPlan
 62
     1
  6
CONTINUOUS
 10
7.4995
 20
2.2728
  0
SEQEND
  8
FloorPlan
  0
POLYLINE
  8
FloorPlan
 62
     1
 66
     1
  6
CONTINUOUS
  0
VERTEX
  8
FloorPlan
 62
     1
  6
CONTINUOUS
 10
7.0064
 20
2.3518
  0
VERTEX
  8
FloorPlan
 62
     1
  6
CONTINUOUS
 10
7.0064
 20
2.2728
  0
SEQEND
  8
FloorPlan
  0
POLYLINE
  8
FloorPlan
 62
     1
 66
     1
  6
CONTINUOUS
  0
VERTEX
  8
FloorPlan
 62
     1
  6
CONTINUOUS
 10
7.7053
 20
6.1577
  0
VERTEX
  8
FloorPlan
 62
     1
  6
CONTINUOUS
 10
5.8560
 20
6.1577
  0
SEQEND
  8
FloorPlan
  0
POLYLINE
  8
FloorPlan
 62
     1
 66
     1
  6
CONTINUOUS
  0
VERTEX
  8
FloorPlan
 62
     1
  6
CONTINUOUS
 10
5.8560
 20
6.1577
  0
VERTEX
  8
FloorPlan
 62
     1
  6
CONTINUOUS
 10
5.8560
 20
4.4524
  0
SEQEND
  8
FloorPlan
  0
POLYLINE
  8
FloorPlan
 62
     1
 66
     1
  6
CONTINUOUS
  0
VERTEX
  8
FloorPlan
 62
     1
  6
CONTINUOUS
 10
5.8560
 20
4.0493
  0
VERTEX
  8
FloorPlan
 62
     1
  6
CONTINUOUS
 10
5.8560
 20
2.3509
  0
SEQEND
  8
FloorPlan
  0
POLYLINE
  8
FloorPlan
 62
     1
 66
     1
  6
CONTINUOUS
  0
VERTEX
  8
FloorPlan
 62
     1
  6
CONTINUOUS
 10
5.7534
 20
2.3509
  0
VERTEX
  8
FloorPlan
 62
     1
  6
CONTINUOUS
 10
5.7534
 20
4.0486
  0
SEQEND
  8
FloorPlan
  0
POLYLINE
  8
FloorPlan
 62
     1
 66
     1
  6
CONTINUOUS
  0
VERTEX
  8
FloorPlan
 62
     1
  6
CONTINUOUS
 10
5.7534
 20
4.4521
  0
VERTEX
  8
FloorPlan
 62
     1
  6
CONTINUOUS
 10
5.7534
 20
6.1577
  0
SEQEND
  8
FloorPlan
  0
POLYLINE
  8
FloorPlan
 62
     1
 66
     1
  6
CONTINUOUS
  0
VERTEX
  8
FloorPlan
 62
     1
  6
CONTINUOUS
 10
5.7534
 20
4.0486
  0
VERTEX
  8
FloorPlan
 62
     1
  6
CONTINUOUS
 10
5.8560
 20
4.0493
  0
SEQEND
  8
FloorPlan
  0
POLYLINE
  8
FloorPlan
 62
     1
 66
     1
  6
CONTINUOUS
  0
VERTEX
  8
FloorPlan
 62
     1
  6
CONTINUOUS
 10
5.7534
 20
4.4521
  0
VERTEX
  8
FloorPlan
 62
     1
  6
CONTINUOUS
 10
5.8560
 20
4.4524
  0
SEQEND
  8
FloorPlan
  0
POLYLINE
  8
FloorPlan
 62
     1
 66
     1
  6
CONTINUOUS
  0
VERTEX
  8
FloorPlan
 62
     1
  6
CONTINUOUS
 10
5.7534
 20
6.1577
  0
VERTEX
  8
FloorPlan
 62
     1
  6
CONTINUOUS
 10
0.9710
 20
6.1567
  0
SEQEND
  8
FloorPlan
  0
POLYLINE
  8
FloorPlan
 62
     1
 66
     1
  6
CONTINUOUS
  0
VERTEX
  8
FloorPlan
 62
     1
  6
CONTINUOUS
 10
3.8746
 20
2.3509
  0
VERTEX
  8
FloorPlan
 62
     1
  6
CONTINUOUS
 10
3.8746
 20
2.2700
  0
SEQEND
  8
FloorPlan
  0
POLYLINE
  8
FloorPlan
 62
     1
 66
     1
  6
CONTINUOUS
  0
VERTEX
  8
FloorPlan
 62
     1
  6
CONTINUOUS
 10
2.8498
 20
2.3509
  0
VERTEX
  8
FloorPlan
 62
     1
  6
CONTINUOUS
 10
2.8498
 20
2.2700
  0
SEQEND
  8
FloorPlan
  0
POLYLINE
  8
FloorPlan
 62
     1
 66
     1
  6
CONTINUOUS
  0
VERTEX
  8
FloorPlan
 62
     1
  6
CONTINUOUS
 10
5.4747
 20
6.1577
  0
VERTEX
  8
FloorPlan
 62
     1
  6
CONTINUOUS
 10
5.4747
 20
6.2417
  0
SEQEND
  8
FloorPlan
  0
POLYLINE
  8
FloorPlan
 62
     1
 66
     1
  6
CONTINUOUS
  0
VERTEX
  8
FloorPlan
 62
     1
  6
CONTINUOUS
 10
4.3690
 20
6.1577
  0
VERTEX
  8
FloorPlan
 62
     1
  6
CONTINUOUS
 10
4.3690
 20
6.2386
  0
SEQEND
  8
FloorPlan
  0
POLYLINE
  8
FloorPlan
 62
     1
 66
     1
  6
CONTINUOUS
  0
VERTEX
  8
FloorPlan
 62
     1
  6
CONTINUOUS
 10
3.8656
 20
6.1577
  0
VERTEX
  8
FloorPlan
 62
     1
  6
CONTINUOUS
 10
3.8656
 20
6.2386
  0
SEQEND
  8
FloorPlan
  0
POLYLINE
  8
FloorPlan
 62
     1
 66
     1
  6
CONTINUOUS
  0
VERTEX
  8
FloorPlan
 62
     1
  6
CONTINUOUS
 10
2.8318
 20
6.1577
  0
VERTEX
  8
FloorPlan
 62
     1
  6
CONTINUOUS
 10
2.8318
 20
6.2386
  0
SEQEND
  8
FloorPlan
  0
POLYLINE
  8
FloorPlan
 62
     1
 66
     1
  6
CONTINUOUS
  0
VERTEX
  8
FloorPlan
 62
     1
  6
CONTINUOUS
 10
5.1450
 20
2.1267
  0
VERTEX
  8
FloorPlan
 62
     1
  6
CONTINUOUS
 10
5.1339
 20
2.1073
  0
SEQEND
  8
FloorPlan
  0
POLYLINE
  8
FloorPlan
 62
     1
 66
     1
  6
CONTINUOUS
  0
VERTEX
  8
FloorPlan
 62
     1
  6
CONTINUOUS
 10
5.1450
 20
2.1267
  0
VERTEX
  8
FloorPlan
 62
     1
  6
CONTINUOUS
 10
4.8588
 20
2.2920
  0
SEQEND
  8
FloorPlan
  0
POLYLINE
  8
FloorPlan
 62
     1
 66
     1
  6
CONTINUOUS
  0
VERTEX
  8
FloorPlan
 62
     1
  6
CONTINUOUS
 10
4.8476
 20
2.2726
  0
VERTEX
  8
FloorPlan
 62
     1
  6
CONTINUOUS
 10
5.1339
 20
2.1073
  0
SEQEND
  8
FloorPlan
  0
POLYLINE
  8
FloorPlan
 62
     1
 66
     1
  6
CONTINUOUS
  0
VERTEX
  8
FloorPlan
 62
     1
  6
CONTINUOUS
 10
4.8588
 20
2.2920
  0
VERTEX
  8
FloorPlan
 62
     1
  6
CONTINUOUS
 10
4.8476
 20
2.2726
  0
SEQEND
  8
FloorPlan
  0
POLYLINE
  8
FloorPlan
 62
     1
 66
     1
  6
CONTINUOUS
  0
VERTEX
  8
FloorPlan
 62
     1
  6
CONTINUOUS
 10
14.1499
 20
2.2672
  0
VERTEX
  8
FloorPlan
 62
     1
  6
CONTINUOUS
 10
13.8495
 20
2.0937
  0
SEQEND
  8
FloorPlan
  0
POLYLINE
  8
FloorPlan
 62
     1
 66
     1
  6
CONTINUOUS
  0
VERTEX
  8
FloorPlan
 62
     1
  6
CONTINUOUS
 10
13.8393
 20
2.1120
  0
VERTEX
  8
FloorPlan
 62
     1
  6
CONTINUOUS
 10
14.1394
 20
2.2853
  0
SEQEND
  8
FloorPlan
  0
ARC
  8
FloorPlan
 62
     1
  6
CONTINUOUS
 10
14.1499
 20
2.2672
 40
0.3469
 50
180.0010
 51
269.9898
  0
POLYLINE
  8
FloorPlan
 62
     1
 66
     1
  6
CONTINUOUS
  0
VERTEX
  8
FloorPlan
 62
     1
  6
CONTINUOUS
 10
14.1394
 20
2.2853
  0
VERTEX
  8
FloorPlan
 62
     1
  6
CONTINUOUS
 10
14.1499
 20
2.2672
  0
SEQEND
  8
FloorPlan
  0
POLYLINE
  8
FloorPlan
 62
     1
 66
     1
  6
CONTINUOUS
  0
VERTEX
  8
FloorPlan
 62
     1
  6
CONTINUOUS
 10
1.5363
 20
6.1575
  0
VERTEX
  8
FloorPlan
 62
     1
  6
CONTINUOUS
 10
1.5363
 20
6.2397
  0
SEQEND
  8
FloorPlan
  0
POLYLINE
  8
FloorPlan
 62
     1
 66
     1
  6
CONTINUOUS
  0
VERTEX
  8
FloorPlan
 62
     1
  6
CONTINUOUS
 10
1.1954
 20
6.1575
  0
VERTEX
  8
FloorPlan
 62
     1
  6
CONTINUOUS
 10
1.1954
 20
6.2397
  0
SEQEND
  8
FloorPlan
  0
POLYLINE
  8
FloorPlan
 62
     1
 66
     1
  6
CONTINUOUS
  0
VERTEX
  8
FloorPlan
 62
     1
  6
CONTINUOUS
 10
0.9710
 20
5.8421
  0
VERTEX
  8
FloorPlan
 62
     1
  6
CONTINUOUS
 10
0.8891
 20
5.8421
  0
SEQEND
  8
FloorPlan
  0
POLYLINE
  8
FloorPlan
 62
     1
 66
     1
  6
CONTINUOUS
  0
VERTEX
  8
FloorPlan
 62
     1
  6
CONTINUOUS
 10
0.9710
 20
5.5045
  0
VERTEX
  8
FloorPlan
 62
     1
  6
CONTINUOUS
 10
0.8891
 20
5.5045
  0
SEQEND
  8
FloorPlan
  0
POLYLINE
  8
FloorPlan
 62
     1
 66
     1
  6
CONTINUOUS
  0
VERTEX
  8
FloorPlan
 62
     1
  6
CONTINUOUS
 10
0.9710
 20
4.6855
  0
VERTEX
  8
FloorPlan
 62
     1
  6
CONTINUOUS
 10
0.8901
 20
4.6862
  0
SEQEND
  8
FloorPlan
  0
POLYLINE
  8
FloorPlan
 62
     1
 66
     1
  6
CONTINUOUS
  0
VERTEX
  8
FloorPlan
 62
     1
  6
CONTINUOUS
 10
0.9710
 20
5.0336
  0
VERTEX
  8
FloorPlan
 62
     1
  6
CONTINUOUS
 10
0.8901
 20
5.0350
  0
SEQEND
  8
FloorPlan
  0
POLYLINE
  8
FloorPlan
 62
     1
 66
     1
  6
CONTINUOUS
  0
VERTEX
  8
FloorPlan
 62
     1
  6
CONTINUOUS
 10
0.9710
 20
2.9691
  0
VERTEX
  8
FloorPlan
 62
     1
  6
CONTINUOUS
 10
0.8870
 20
2.9691
  0
SEQEND
  8
FloorPlan
  0
POLYLINE
  8
FloorPlan
 62
     1
 66
     1
  6
CONTINUOUS
  0
VERTEX
  8
FloorPlan
 62
     1
  6
CONTINUOUS
 10
0.9710
 20
3.9653
  0
VERTEX
  8
FloorPlan
 62
     1
  6
CONTINUOUS
 10
0.8870
 20
3.9653
  0
SEQEND
  8
FloorPlan
  0
POLYLINE
  8
FloorPlan
 62
     1
 66
     1
  6
CONTINUOUS
  0
VERTEX
  8
FloorPlan
 62
     1
  6
CONTINUOUS
 10
4.1785
 20
4.2554
  0
VERTEX
  8
FloorPlan
 62
     1
  6
CONTINUOUS
 10
4.1785
 20
4.2554
  0
SEQEND
  8
FloorPlan
  0
POLYLINE
  8
FloorPlan
 62
     1
 66
     1
  6
CONTINUOUS
  0
VERTEX
  8
FloorPlan
 62
     1
  6
CONTINUOUS
 10
2.5028
 20
4.2554
  0
VERTEX
  8
FloorPlan
 62
     1
  6
CONTINUOUS
 10
2.5028
 20
4.2554
  0
SEQEND
  8
FloorPlan
  0
CIRCLE
  8
FloorPlan
 62
     1
  6
CONTINUOUS
 10
2.5028
 20
4.2554
 40
0.0275
  0
CIRCLE
  8
FloorPlan
 62
     1
  6
CONTINUOUS
 10
4.1785
 20
4.2554
 40
0.0275
  0
POLYLINE
  8
FloorPlan
 62
     1
 66
     1
  6
CONTINUOUS
  0
VERTEX
  8
FloorPlan
 62
     1
  6
CONTINUOUS
 10
0.9710
 20
6.1567
  0
VERTEX
  8
FloorPlan
 62
     1
  6
CONTINUOUS
 10
0.9708
 20
5.1074
  0
VERTEX
  8
FloorPlan
 62
     1
  6
CONTINUOUS
 10
0.9710
 20
6.1545
  0
SEQEND
  8
FloorPlan
  0
POLYLINE
  8
FloorPlan
 62
     1
 66
     1
  6
CONTINUOUS
  0
VERTEX
  8
FloorPlan
 62
     1
  6
CONTINUOUS
 10
1.8213
 20
5.0597
  0
VERTEX
  8
FloorPlan
 62
     1
  6
CONTINUOUS
 10
1.8213
 20
5.1419
  0
SEQEND
  8
FloorPlan
  0
POLYLINE
  8
FloorPlan
 62
     1
 66
     1
  6
CONTINUOUS
  0
VERTEX
  8
FloorPlan
 62
     1
  6
CONTINUOUS
 10
0.9710
 20
2.3509
  0
VERTEX
  8
FloorPlan
 62
     1
  6
CONTINUOUS
 10
0.9710
 20
4.6855
  0
SEQEND
  8
FloorPlan
  0
POLYLINE
  8
FloorPlan
 62
     1
 66
     1
  6
CONTINUOUS
  0
VERTEX
  8
FloorPlan
 62
     1
  6
CONTINUOUS
 10
0.9710
 20
5.0336
  0
VERTEX
  8
FloorPlan
 62
     1
  6
CONTINUOUS
 10
0.9710
 20
6.1567
  0
SEQEND
  8
FloorPlan
  0
POLYLINE
  8
FloorPlan
 62
     1
 66
     1
  6
CONTINUOUS
  0
VERTEX
  8
FloorPlan
 62
     1
  6
CONTINUOUS
 10
0.8901
 20
6.2343
  0
VERTEX
  8
FloorPlan
 62
     1
  6
CONTINUOUS
 10
0.8901
 20
5.0350
  0
SEQEND
  8
FloorPlan
  0
POLYLINE
  8
FloorPlan
 62
     1
 66
     1
  6
CONTINUOUS
  0
VERTEX
  8
FloorPlan
 62
     1
  6
CONTINUOUS
 10
0.8901
 20
4.6862
  0
VERTEX
  8
FloorPlan
 62
     1
  6
CONTINUOUS
 10
0.8901
 20
2.2735
  0
SEQEND
  8
FloorPlan
  0
POLYLINE
  8
FloorPlan
 62
     1
 66
     1
  6
CONTINUOUS
  0
VERTEX
  8
FloorPlan
 62
     1
  6
CONTINUOUS
 10
0.7157
 20
4.7330
  0
VERTEX
  8
FloorPlan
 62
     1
  6
CONTINUOUS
 10
0.8901
 20
5.0350
  0
SEQEND
  8
FloorPlan
  0
POLYLINE
  8
FloorPlan
 62
     1
 66
     1
  6
CONTINUOUS
  0
VERTEX
  8
FloorPlan
 62
     1
  6
CONTINUOUS
 10
0.7377
 20
4.7203
  0
VERTEX
  8
FloorPlan
 62
     1
  6
CONTINUOUS
 10
0.9121
 20
5.0223
  0
SEQEND
  8
FloorPlan
  0
ARC
  8
FloorPlan
 62
     1
  6
CONTINUOUS
 10
0.8901
 20
5.0350
 40
0.3491
 50
180.0000
 51
-90.0000
  0
POLYLINE
  8
FloorPlan
 62
     1
 66
     1
  6
CONTINUOUS
  0
VERTEX
  8
FloorPlan
 62
     1
  6
CONTINUOUS
 10
0.9121
 20
5.0223
  0
VERTEX
  8
FloorPlan
 62
     1
  6
CONTINUOUS
 10
0.8901
 20
5.0350
  0
SEQEND
  8
FloorPlan
  0
POLYLINE
  8
FloorPlan
 62
     1
 66
     1
  6
CONTINUOUS
  0
VERTEX
  8
FloorPlan
 62
     1
  6
CONTINUOUS
 10
2.7840
 20
5.1076
  0
VERTEX
  8
FloorPlan
 62
     1
  6
CONTINUOUS
 10
2.7840
 20
6.1577
  0
SEQEND
  8
FloorPlan
  0
POLYLINE
  8
FloorPlan
 62
     1
 66
     1
  6
CONTINUOUS
  0
VERTEX
  8
FloorPlan
 62
     1
  6
CONTINUOUS
 10
2.3464
 20
5.0600
  0
VERTEX
  8
FloorPlan
 62
     1
  6
CONTINUOUS
 10
2.2475
 20
5.0597
  0
SEQEND
  8
FloorPlan
  0
POLYLINE
  8
FloorPlan
 62
     1
 66
     1
  6
CONTINUOUS
  0
VERTEX
  8
FloorPlan
 62
     1
  6
CONTINUOUS
 10
2.3464
 20
6.1577
  0
VERTEX
  8
FloorPlan
 62
     1
  6
CONTINUOUS
 10
2.3464
 20
5.0600
  0
SEQEND
  8
FloorPlan
  0
POLYLINE
  8
FloorPlan
 62
     1
 66
     1
  6
CONTINUOUS
  0
VERTEX
  8
FloorPlan
 62
     1
  6
CONTINUOUS
 10
4.2940
 20
5.0606
  0
VERTEX
  8
FloorPlan
 62
     1
  6
CONTINUOUS
 10
4.2965
 20
6.1192
  0
SEQEND
  8
FloorPlan
  0
POLYLINE
  8
FloorPlan
 62
     1
 66
     1
  6
CONTINUOUS
  0
VERTEX
  8
FloorPlan
 62
     1
  6
CONTINUOUS
 10
4.2528
 20
5.1076
  0
VERTEX
  8
FloorPlan
 62
     1
  6
CONTINUOUS
 10
4.2519
 20
6.1192
  0
SEQEND
  8
FloorPlan
  0
POLYLINE
  8
FloorPlan
 62
     1
 66
     1
  6
CONTINUOUS
  0
VERTEX
  8
FloorPlan
 62
     1
  6
CONTINUOUS
 10
2.7840
 20
5.1076
  0
VERTEX
  8
FloorPlan
 62
     1
  6
CONTINUOUS
 10
2.7840
 20
5.1076
  0
SEQEND
  8
FloorPlan
  0
POLYLINE
  8
FloorPlan
 62
     1
 66
     1
  6
CONTINUOUS
  0
VERTEX
  8
FloorPlan
 62
     1
  6
CONTINUOUS
 10
2.2449
 20
6.1181
  0
VERTEX
  8
FloorPlan
 62
     1
  6
CONTINUOUS
 10
0.9706
 20
6.1181
  0
SEQEND
  8
FloorPlan
  0
POLYLINE
  8
FloorPlan
 62
     1
 66
     1
  6
CONTINUOUS
  0
VERTEX
  8
FloorPlan
 62
     1
  6
CONTINUOUS
 10
1.2878
 20
6.1181
  0
VERTEX
  8
FloorPlan
 62
     1
  6
CONTINUOUS
 10
1.2878
 20
5.6519
  0
SEQEND
  8
FloorPlan
  0
POLYLINE
  8
FloorPlan
 62
     1
 66
     1
  6
CONTINUOUS
  0
VERTEX
  8
FloorPlan
 62
     1
  6
CONTINUOUS
 10
1.2878
 20
5.6358
  0
VERTEX
  8
FloorPlan
 62
     1
  6
CONTINUOUS
 10
1.2718
 20
5.6358
  0
SEQEND
  8
FloorPlan
  0
POLYLINE
  8
FloorPlan
 62
     1
 66
     1
  6
CONTINUOUS
  0
VERTEX
  8
FloorPlan
 62
     1
  6
CONTINUOUS
 10
1.2718
 20
5.6519
  0
VERTEX
  8
FloorPlan
 62
     1
  6
CONTINUOUS
 10
1.2718
 20
6.1181
  0
SEQEND
  8
FloorPlan
  0
POLYLINE
  8
FloorPlan
 62
     1
 66
     1
  6
CONTINUOUS
  0
VERTEX
  8
FloorPlan
 62
     1
  6
CONTINUOUS
 10
0.9990
 20
5.0600
  0
VERTEX
  8
FloorPlan
 62
     1
  6
CONTINUOUS
 10
0.9990
 20
5.1059
  0
SEQEND
  8
FloorPlan
  0
POLYLINE
  8
FloorPlan
 62
     1
 66
     1
  6
CONTINUOUS
  0
VERTEX
  8
FloorPlan
 62
     1
  6
CONTINUOUS
 10
1.2991
 20
5.1430
  0
VERTEX
  8
FloorPlan
 62
     1
  6
CONTINUOUS
 10
1.2991
 20
5.0600
  0
SEQEND
  8
FloorPlan
  0
POLYLINE
  8
FloorPlan
 62
     1
 66
     1
  6
CONTINUOUS
  0
VERTEX
  8
FloorPlan
 62
     1
  6
CONTINUOUS
 10
2.2475
 20
5.0597
  0
VERTEX
  8
FloorPlan
 62
     1
  6
CONTINUOUS
 10
2.1215
 20
5.0597
  0
VERTEX
  8
FloorPlan
 62
     1
  6
CONTINUOUS
 10
2.1215
 20
5.1428
  0
VERTEX
  8
FloorPlan
 62
     1
  6
CONTINUOUS
 10
2.2475
 20
5.1428
  0
SEQEND
  8
FloorPlan
  0
POLYLINE
  8
FloorPlan
 62
     1
 66
     1
  6
CONTINUOUS
  0
VERTEX
  8
FloorPlan
 62
     1
  6
CONTINUOUS
 10
1.8796
 20
6.1194
  0
VERTEX
  8
FloorPlan
 62
     1
  6
CONTINUOUS
 10
1.8796
 20
5.9014
  0
VERTEX
  8
FloorPlan
 62
     1
  6
CONTINUOUS
 10
1.6273
 20
5.9014
  0
VERTEX
  8
FloorPlan
 62
     1
  6
CONTINUOUS
 10
1.6273
 20
6.1194
  0
VERTEX
  8
FloorPlan
 62
     1
  6
CONTINUOUS
 10
1.8796
 20
6.1194
  0
SEQEND
  8
FloorPlan
  0
POLYLINE
  8
FloorPlan
 62
     1
 66
     1
  6
CONTINUOUS
  0
VERTEX
  8
FloorPlan
 62
     1
  6
CONTINUOUS
 10
1.8213
 20
5.0597
  0
VERTEX
  8
FloorPlan
 62
     1
  6
CONTINUOUS
 10
1.2991
 20
5.0600
  0
SEQEND
  8
FloorPlan
  0
POLYLINE
  8
FloorPlan
 62
     1
 66
     1
  6
CONTINUOUS
  0
VERTEX
  8
FloorPlan
 62
     1
  6
CONTINUOUS
 10
0.9990
 20
5.0600
  0
VERTEX
  8
FloorPlan
 62
     1
  6
CONTINUOUS
 10
0.9734
 20
5.0600
  0
VERTEX
  8
FloorPlan
 62
     1
  6
CONTINUOUS
 10
0.9708
 20
5.1074
  0
VERTEX
  8
FloorPlan
 62
     1
  6
CONTINUOUS
 10
0.9990
 20
5.1059
  0
SEQEND
  8
FloorPlan
  0
POLYLINE
  8
FloorPlan
 62
     1
 66
     1
  6
CONTINUOUS
  0
VERTEX
  8
FloorPlan
 62
     1
  6
CONTINUOUS
 10
1.2991
 20
5.1075
  0
VERTEX
  8
FloorPlan
 62
     1
  6
CONTINUOUS
 10
1.7362
 20
5.1064
  0
VERTEX
  8
FloorPlan
 62
     1
  6
CONTINUOUS
 10
1.8213
 20
5.1064
  0
SEQEND
  8
FloorPlan
  0
ARC
  8
FloorPlan
 62
     1
  6
CONTINUOUS
 10
2.1215
 20
5.1072
 40
0.3009
 50
65.3368
 51
180.1586
  0
ARC
  8
FloorPlan
 62
     1
  6
CONTINUOUS
 10
0.9990
 20
5.1075
 40
0.3002
 50
0.0000
 51
90.0000
  0
POLYLINE
  8
FloorPlan
 62
     1
 66
     1
  6
CONTINUOUS
  0
VERTEX
  8
FloorPlan
 62
     1
  6
CONTINUOUS
 10
2.1325
 20
6.1577
  0
VERTEX
  8
FloorPlan
 62
     1
  6
CONTINUOUS
 10
2.1325
 20
6.2409
  0
SEQEND
  8
FloorPlan
  0
POLYLINE
  8
FloorPlan
 62
     1
 66
     1
  6
CONTINUOUS
  0
VERTEX
  8
FloorPlan
 62
     1
  6
CONTINUOUS
 10
1.9633
 20
6.1577
  0
VERTEX
  8
FloorPlan
 62
     1
  6
CONTINUOUS
 10
1.9633
 20
6.2409
  0
SEQEND
  8
FloorPlan
  0
POLYLINE
  8
FloorPlan
 62
     1
 66
     1
  6
CONTINUOUS
  0
VERTEX
  8
FloorPlan
 62
     1
  6
CONTINUOUS
 10
2.7863
 20
6.1200
  0
VERTEX
  8
FloorPlan
 62
     1
  6
CONTINUOUS
 10
4.2519
 20
6.1192
  0
SEQEND
  8
FloorPlan
  0
POLYLINE
  8
FloorPlan
 62
     1
 66
     1
  6
CONTINUOUS
  0
VERTEX
  8
FloorPlan
 62
     1
  6
CONTINUOUS
 10
4.2519
 20
6.1192
  0
VERTEX
  8
FloorPlan
 62
     1
  6
CONTINUOUS
 10
5.7534
 20
6.1192
  0
SEQEND
  8
FloorPlan
  0
POLYLINE
  8
FloorPlan
 62
     1
 66
     1
  6
CONTINUOUS
  0
VERTEX
  8
FloorPlan
 62
     1
  6
CONTINUOUS
 10
4.2965
 20
6.1192
  0
VERTEX
  8
FloorPlan
 62
     1
  6
CONTINUOUS
 10
4.2519
 20
6.1192
  0
SEQEND
  8
FloorPlan
  0
POLYLINE
  8
FloorPlan
 62
     1
 66
     1
  6
CONTINUOUS
  0
VERTEX
  8
FloorPlan
 62
     1
  6
CONTINUOUS
 10
4.3686
 20
6.1192
  0
VERTEX
  8
FloorPlan
 62
     1
  6
CONTINUOUS
 10
4.3686
 20
5.8717
  0
VERTEX
  8
FloorPlan
 62
     1
  6
CONTINUOUS
 10
5.4747
 20
5.8717
  0
VERTEX
  8
FloorPlan
 62
     1
  6
CONTINUOUS
 10
5.4747
 20
6.1197
  0
SEQEND
  8
FloorPlan
  0
POLYLINE
  8
FloorPlan
 62
     1
 66
     1
  6
CONTINUOUS
  0
VERTEX
  8
FloorPlan
 62
     1
  6
CONTINUOUS
 10
10.8498
 20
5.5576
  0
VERTEX
  8
FloorPlan
 62
     1
  6
CONTINUOUS
 10
10.7460
 20
5.5576
  0
SEQEND
  8
FloorPlan
  0
POLYLINE
  8
FloorPlan
 62
     1
 66
     1
  6
CONTINUOUS
  0
VERTEX
  8
FloorPlan
 62
     1
  6
CONTINUOUS
 10
10.8498
 20
5.2295
  0
VERTEX
  8
FloorPlan
 62
     1
  6
CONTINUOUS
 10
10.7456
 20
5.2295
  0
SEQEND
  8
FloorPlan
  0
POLYLINE
  8
FloorPlan
 62
     1
 66
     1
  6
CONTINUOUS
  0
VERTEX
  8
FloorPlan
 62
     1
  6
CONTINUOUS
 10
10.9310
 20
5.5137
  0
VERTEX
  8
FloorPlan
 62
     1
  6
CONTINUOUS
 10
10.7669
 20
5.2295
  0
SEQEND
  8
FloorPlan
  0
POLYLINE
  8
FloorPlan
 62
     1
 66
     1
  6
CONTINUOUS
  0
VERTEX
  8
FloorPlan
 62
     1
  6
CONTINUOUS
 10
10.7484
 20
5.2401
  0
VERTEX
  8
FloorPlan
 62
     1
  6
CONTINUOUS
 10
10.9125
 20
5.5243
  0
SEQEND
  8
FloorPlan
  0
ARC
  8
FloorPlan
 62
     1
  6
CONTINUOUS
 10
10.7669
 20
5.2295
 40
0.3282
 50
-0.0993
 51
90.0000
  0
POLYLINE
  8
FloorPlan
 62
     1
 66
     1
  6
CONTINUOUS
  0
VERTEX
  8
FloorPlan
 62
     1
  6
CONTINUOUS
 10
10.7484
 20
5.2401
  0
VERTEX
  8
FloorPlan
 62
     1
  6
CONTINUOUS
 10
10.7669
 20
5.2295
  0
SEQEND
  8
FloorPlan
  0
POLYLINE
  8
FloorPlan
 62
     1
 66
     1
  6
CONTINUOUS
  0
VERTEX
  8
FloorPlan
 62
     1
  6
CONTINUOUS
 10
10.8498
 20
5.5576
  0
VERTEX
  8
FloorPlan
 62
     1
  6
CONTINUOUS
 10
10.7452
 20
5.5576
  0
SEQEND
  8
FloorPlan
  0
POLYLINE
  8
FloorPlan
 62
     1
 66
     1
  6
CONTINUOUS
  0
VERTEX
  8
FloorPlan
 62
     1
  6
CONTINUOUS
 10
10.8494
 20
5.2295
  0
VERTEX
  8
FloorPlan
 62
     1
  6
CONTINUOUS
 10
10.7456
 20
5.2295
  0
SEQEND
  8
FloorPlan
  0
POLYLINE
  8
FloorPlan
 62
     1
 66
     1
  6
CONTINUOUS
  0
VERTEX
  8
FloorPlan
 62
     1
  6
CONTINUOUS
 10
7.7464
 20
2.3509
  0
VERTEX
  8
FloorPlan
 62
     1
  6
CONTINUOUS
 10
7.7464
 20
2.3968
  0
SEQEND
  8
FloorPlan
  0
POLYLINE
  8
FloorPlan
 62
     1
 66
     1
  6
CONTINUOUS
  0
VERTEX
  8
FloorPlan
 62
     1
  6
CONTINUOUS
 10
7.7464
 20
6.1147
  0
VERTEX
  8
FloorPlan
 62
     1
  6
CONTINUOUS
 10
7.7464
 20
6.1577
  0
SEQEND
  8
FloorPlan
  0
POLYLINE
  8
FloorPlan
 62
     1
 66
     1
  6
CONTINUOUS
  0
VERTEX
  8
FloorPlan
 62
     1
  6
CONTINUOUS
 10
7.7053
 20
6.1577
  0
VERTEX
  8
FloorPlan
 62
     1
  6
CONTINUOUS
 10
7.7053
 20
6.1147
  0
SEQEND
  8
FloorPlan
  0
POLYLINE
  8
FloorPlan
 62
     1
 66
     1
  6
CONTINUOUS
  0
VERTEX
  8
FloorPlan
 62
     1
  6
CONTINUOUS
 10
7.7053
 20
2.3968
  0
VERTEX
  8
FloorPlan
 62
     1
  6
CONTINUOUS
 10
7.7053
 20
2.3509
  0
SEQEND
  8
FloorPlan
  0
POLYLINE
  8
FloorPlan
 62
     1
 66
     1
  6
CONTINUOUS
  0
VERTEX
  8
FloorPlan
 62
     1
  6
CONTINUOUS
 10
7.7053
 20
6.1147
  0
VERTEX
  8
FloorPlan
 62
     1
  6
CONTINUOUS
 10
7.7464
 20
6.1147
  0
SEQEND
  8
FloorPlan
  0
POLYLINE
  8
FloorPlan
 62
     1
 66
     1
  6
CONTINUOUS
  0
VERTEX
  8
FloorPlan
 62
     1
  6
CONTINUOUS
 10
7.7053
 20
2.3968
  0
VERTEX
  8
FloorPlan
 62
     1
  6
CONTINUOUS
 10
7.7464
 20
2.3968
  0
SEQEND
  8
FloorPlan
  0
POLYLINE
  8
FloorPlan
 62
     1
 66
     1
  6
CONTINUOUS
  0
VERTEX
  8
FloorPlan
 62
     1
  6
CONTINUOUS
 10
4.6725
 20
3.5977
  0
VERTEX
  8
FloorPlan
 62
     1
  6
CONTINUOUS
 10
4.6728
 20
2.3940
  0
SEQEND
  8
FloorPlan
  0
POLYLINE
  8
FloorPlan
 62
     1
 66
     1
  6
CONTINUOUS
  0
VERTEX
  8
FloorPlan
 62
     1
  6
CONTINUOUS
 10
4.7138
 20
2.3940
  0
VERTEX
  8
FloorPlan
 62
     1
  6
CONTINUOUS
 10
4.7131
 20
3.6384
  0
SEQEND
  8
FloorPlan
  0
POLYLINE
  8
FloorPlan
 62
     1
 66
     1
  6
CONTINUOUS
  0
VERTEX
  8
FloorPlan
 62
     1
  6
CONTINUOUS
 10
4.6363
 20
3.5977
  0
VERTEX
  8
FloorPlan
 62
     1
  6
CONTINUOUS
 10
4.6363
 20
3.6384
  0
SEQEND
  8
FloorPlan
  0
POLYLINE
  8
FloorPlan
 62
     1
 66
     1
  6
CONTINUOUS
  0
VERTEX
  8
FloorPlan
 62
     1
  6
CONTINUOUS
 10
4.3735
 20
3.4460
  0
VERTEX
  8
FloorPlan
 62
     1
  6
CONTINUOUS
 10
4.3735
 20
3.4460
  0
SEQEND
  8
FloorPlan
  0
POLYLINE
  8
FloorPlan
 62
     1
 66
     1
  6
CONTINUOUS
  0
VERTEX
  8
FloorPlan
 62
     1
  6
CONTINUOUS
 10
4.3328
 20
3.5977
  0
VERTEX
  8
FloorPlan
 62
     1
  6
CONTINUOUS
 10
4.3328
 20
3.6384
  0
SEQEND
  8
FloorPlan
  0
POLYLINE
  8
FloorPlan
 62
     1
 66
     1
  6
CONTINUOUS
  0
VERTEX
  8
FloorPlan
 62
     1
  6
CONTINUOUS
 10
4.6725
 20
3.5977
  0
VERTEX
  8
FloorPlan
 62
     1
  6
CONTINUOUS
 10
4.6363
 20
3.5977
  0
SEQEND
  8
FloorPlan
  0
POLYLINE
  8
FloorPlan
 62
     1
 66
     1
  6
CONTINUOUS
  0
VERTEX
  8
FloorPlan
 62
     1
  6
CONTINUOUS
 10
4.6363
 20
3.6384
  0
VERTEX
  8
FloorPlan
 62
     1
  6
CONTINUOUS
 10
4.7131
 20
3.6384
  0
SEQEND
  8
FloorPlan
  0
POLYLINE
  8
FloorPlan
 62
     1
 66
     1
  6
CONTINUOUS
  0
VERTEX
  8
FloorPlan
 62
     1
  6
CONTINUOUS
 10
4.2762
 20
3.6384
  0
VERTEX
  8
FloorPlan
 62
     1
  6
CONTINUOUS
 10
4.3328
 20
3.6384
  0
SEQEND
  8
FloorPlan
  0
POLYLINE
  8
FloorPlan
 62
     1
 66
     1
  6
CONTINUOUS
  0
VERTEX
  8
FloorPlan
 62
     1
  6
CONTINUOUS
 10
4.1454
 20
4.6157
  0
VERTEX
  8
FloorPlan
 62
     1
  6
CONTINUOUS
 10
2.1301
 20
4.6132
  0
SEQEND
  8
FloorPlan
  0
POLYLINE
  8
FloorPlan
 62
     1
 66
     1
  6
CONTINUOUS
  0
VERTEX
  8
FloorPlan
 62
     1
  6
CONTINUOUS
 10
1.2051
 20
2.3183
  0
VERTEX
  8
FloorPlan
 62
     1
  6
CONTINUOUS
 10
2.2073
 20
2.3183
  0
VERTEX
  8
FloorPlan
 62
     1
  6
CONTINUOUS
 10
2.2073
 20
2.3022
  0
VERTEX
  8
FloorPlan
 62
     1
  6
CONTINUOUS
 10
1.2051
 20
2.3022
  0
VERTEX
  8
FloorPlan
 62
     1
  6
CONTINUOUS
 10
1.2051
 20
2.3183
  0
SEQEND
  8
FloorPlan
  0
POLYLINE
  8
FloorPlan
 62
     1
 66
     1
  6
CONTINUOUS
  0
VERTEX
  8
FloorPlan
 62
     1
  6
CONTINUOUS
 10
1.2051
 20
2.3183
  0
VERTEX
  8
FloorPlan
 62
     1
  6
CONTINUOUS
 10
2.2073
 20
2.3183
  0
VERTEX
  8
FloorPlan
 62
     1
  6
CONTINUOUS
 10
2.2073
 20
2.3022
  0
VERTEX
  8
FloorPlan
 62
     1
  6
CONTINUOUS
 10
1.2051
 20
2.3022
  0
VERTEX
  8
FloorPlan
 62
     1
  6
CONTINUOUS
 10
1.2051
 20
2.3183
  0
SEQEND
  8
FloorPlan
  0
POLYLINE
  8
FloorPlan
 62
     1
 66
     1
  6
CONTINUOUS
  0
VERTEX
  8
FloorPlan
 62
     1
  6
CONTINUOUS
 10
2.8498
 20
2.3183
  0
VERTEX
  8
FloorPlan
 62
     1
  6
CONTINUOUS
 10
3.8739
 20
2.3183
  0
VERTEX
  8
FloorPlan
 62
     1
  6
CONTINUOUS
 10
3.8739
 20
2.3022
  0
VERTEX
  8
FloorPlan
 62
     1
  6
CONTINUOUS
 10
2.8498
 20
2.3022
  0
VERTEX
  8
FloorPlan
 62
     1
  6
CONTINUOUS
 10
2.8498
 20
2.3183
  0
SEQEND
  8
FloorPlan
  0
POLYLINE
  8
FloorPlan
 62
     1
 66
     1
  6
CONTINUOUS
  0
VERTEX
  8
FloorPlan
 62
     1
  6
CONTINUOUS
 10
0.9384
 20
2.9691
  0
VERTEX
  8
FloorPlan
 62
     1
  6
CONTINUOUS
 10
0.9384
 20
3.9675
  0
VERTEX
  8
FloorPlan
 62
     1
  6
CONTINUOUS
 10
0.9223
 20
3.9675
  0
VERTEX
  8
FloorPlan
 62
     1
  6
CONTINUOUS
 10
0.9223
 20
2.9691
  0
VERTEX
  8
FloorPlan
 62
     1
  6
CONTINUOUS
 10
0.9384
 20
2.9691
  0
SEQEND
  8
FloorPlan
  0
POLYLINE
  8
FloorPlan
 62
     1
 66
     1
  6
CONTINUOUS
  0
VERTEX
  8
FloorPlan
 62
     1
  6
CONTINUOUS
 10
14.2890
 20
2.7862
  0
VERTEX
  8
FloorPlan
 62
     1
  6
CONTINUOUS
 10
14.2912
 20
3.2988
  0
SEQEND
  8
FloorPlan
  0
POLYLINE
  8
FloorPlan
 62
     1
 66
     1
  6
CONTINUOUS
  0
VERTEX
  8
FloorPlan
 62
     1
  6
CONTINUOUS
 10
14.3063
 20
3.2988
  0
VERTEX
  8
FloorPlan
 62
     1
  6
CONTINUOUS
 10
14.3051
 20
2.7862
  0
VERTEX
  8
FloorPlan
 62
     1
  6
CONTINUOUS
 10
14.2890
 20
2.7862
  0
SEQEND
  8
FloorPlan
  0
POLYLINE
  8
FloorPlan
 62
     1
 66
     1
  6
CONTINUOUS
  0
VERTEX
  8
FloorPlan
 62
     1
  6
CONTINUOUS
 10
14.3063
 20
3.2988
  0
VERTEX
  8
FloorPlan
 62
     1
  6
CONTINUOUS
 10
14.2912
 20
3.2988
  0
SEQEND
  8
FloorPlan
  0
POLYLINE
  8
FloorPlan
 62
     1
 66
     1
  6
CONTINUOUS
  0
VERTEX
  8
FloorPlan
 62
     1
  6
CONTINUOUS
 10
14.2856
 20
5.2201
  0
VERTEX
  8
FloorPlan
 62
     1
  6
CONTINUOUS
 10
14.2862
 20
5.7263
  0
SEQEND
  8
FloorPlan
  0
POLYLINE
  8
FloorPlan
 62
     1
 66
     1
  6
CONTINUOUS
  0
VERTEX
  8
FloorPlan
 62
     1
  6
CONTINUOUS
 10
14.3038
 20
5.7263
  0
VERTEX
  8
FloorPlan
 62
     1
  6
CONTINUOUS
 10
14.3017
 20
5.2201
  0
VERTEX
  8
FloorPlan
 62
     1
  6
CONTINUOUS
 10
14.2856
 20
5.2201
  0
SEQEND
  8
FloorPlan
  0
POLYLINE
  8
FloorPlan
 62
     1
 66
     1
  6
CONTINUOUS
  0
VERTEX
  8
FloorPlan
 62
     1
  6
CONTINUOUS
 10
14.2862
 20
5.7263
  0
VERTEX
  8
FloorPlan
 62
     1
  6
CONTINUOUS
 10
14.3038
 20
5.7263
  0
SEQEND
  8
FloorPlan
  0
POLYLINE
  8
FloorPlan
 62
     1
 66
     1
  6
CONTINUOUS
  0
VERTEX
  8
FloorPlan
 62
     1
  6
CONTINUOUS
 10
14.3374
 20
6.2421
  0
VERTEX
  8
FloorPlan
 62
     1
  6
CONTINUOUS
 10
0.9345
 20
6.2421
  0
SEQEND
  8
FloorPlan
  0
POLYLINE
  8
FloorPlan
 62
     1
 66
     1
  6
CONTINUOUS
  0
VERTEX
  8
FloorPlan
 62
     1
  6
CONTINUOUS
 10
0.9345
 20
6.2421
  0
VERTEX
  8
FloorPlan
 62
     1
  6
CONTINUOUS
 10
0.8901
 20
6.2421
  0
SEQEND
  8
FloorPlan
  0
POLYLINE
  8
FloorPlan
 62
     1
 66
     1
  6
CONTINUOUS
  0
VERTEX
  8
FloorPlan
 62
     1
  6
CONTINUOUS
 10
0.9384
 20
5.5045
  0
VERTEX
  8
FloorPlan
 62
     1
  6
CONTINUOUS
 10
0.9384
 20
5.8422
  0
SEQEND
  8
FloorPlan
  0
POLYLINE
  8
FloorPlan
 62
     1
 66
     1
  6
CONTINUOUS
  0
VERTEX
  8
FloorPlan
 62
     1
  6
CONTINUOUS
 10
0.9219
 20
5.8422
  0
VERTEX
  8
FloorPlan
 62
     1
  6
CONTINUOUS
 10
0.9223
 20
5.5045
  0
VERTEX
  8
FloorPlan
 62
     1
  6
CONTINUOUS
 10
0.9384
 20
5.5045
  0
SEQEND
  8
FloorPlan
  0
POLYLINE
  8
FloorPlan
 62
     1
 66
     1
  6
CONTINUOUS
  0
VERTEX
  8
FloorPlan
 62
     1
  6
CONTINUOUS
 10
0.9384
 20
5.8422
  0
VERTEX
  8
FloorPlan
 62
     1
  6
CONTINUOUS
 10
0.9219
 20
5.8422
  0
SEQEND
  8
FloorPlan
  0
POLYLINE
  8
FloorPlan
 62
     1
 66
     1
  6
CONTINUOUS
  0
VERTEX
  8
FloorPlan
 62
     1
  6
CONTINUOUS
 10
7.0081
 20
2.3208
  0
VERTEX
  8
FloorPlan
 62
     1
  6
CONTINUOUS
 10
7.4999
 20
2.3208
  0
VERTEX
  8
FloorPlan
 62
     1
  6
CONTINUOUS
 10
7.4999
 20
2.3047
  0
VERTEX
  8
FloorPlan
 62
     1
  6
CONTINUOUS
 10
7.0081
 20
2.3047
  0
VERTEX
  8
FloorPlan
 62
     1
  6
CONTINUOUS
 10
7.0081
 20
2.3208
  0
SEQEND
  8
FloorPlan
  0
POLYLINE
  8
FloorPlan
 62
     1
 66
     1
  6
CONTINUOUS
  0
VERTEX
  8
FloorPlan
 62
     1
  6
CONTINUOUS
 10
9.0113
 20
2.3208
  0
VERTEX
  8
FloorPlan
 62
     1
  6
CONTINUOUS
 10
9.5134
 20
2.3218
  0
VERTEX
  8
FloorPlan
 62
     1
  6
CONTINUOUS
 10
9.5127
 20
2.3047
  0
VERTEX
  8
FloorPlan
 62
     1
  6
CONTINUOUS
 10
9.0113
 20
2.3047
  0
VERTEX
  8
FloorPlan
 62
     1
  6
CONTINUOUS
 10
9.0113
 20
2.3208
  0
SEQEND
  8
FloorPlan
  0
POLYLINE
  8
FloorPlan
 62
     1
 66
     1
  6
CONTINUOUS
  0
VERTEX
  8
FloorPlan
 62
     1
  6
CONTINUOUS
 10
2.8318
 20
6.1903
  0
VERTEX
  8
FloorPlan
 62
     1
  6
CONTINUOUS
 10
3.8658
 20
6.1903
  0
VERTEX
  8
FloorPlan
 62
     1
  6
CONTINUOUS
 10
3.8658
 20
6.2064
  0
VERTEX
  8
FloorPlan
 62
     1
  6
CONTINUOUS
 10
2.8318
 20
6.2064
  0
VERTEX
  8
FloorPlan
 62
     1
  6
CONTINUOUS
 10
2.8318
 20
6.1903
  0
SEQEND
  8
FloorPlan
  0
POLYLINE
  8
FloorPlan
 62
     1
 66
     1
  6
CONTINUOUS
  0
VERTEX
  8
FloorPlan
 62
     1
  6
CONTINUOUS
 10
4.3690
 20
6.1903
  0
VERTEX
  8
FloorPlan
 62
     1
  6
CONTINUOUS
 10
5.4754
 20
6.1903
  0
VERTEX
  8
FloorPlan
 62
     1
  6
CONTINUOUS
 10
5.4754
 20
6.2064
  0
VERTEX
  8
FloorPlan
 62
     1
  6
CONTINUOUS
 10
4.3690
 20
6.2064
  0
VERTEX
  8
FloorPlan
 62
     1
  6
CONTINUOUS
 10
4.3690
 20
6.1903
  0
SEQEND
  8
FloorPlan
  0
POLYLINE
  8
FloorPlan
 62
     1
 66
     1
  6
CONTINUOUS
  0
VERTEX
  8
FloorPlan
 62
     1
  6
CONTINUOUS
 10
1.1954
 20
6.1871
  0
VERTEX
  8
FloorPlan
 62
     1
  6
CONTINUOUS
 10
1.5366
 20
6.1871
  0
SEQEND
  8
FloorPlan
  0
POLYLINE
  8
FloorPlan
 62
     1
 66
     1
  6
CONTINUOUS
  0
VERTEX
  8
FloorPlan
 62
     1
  6
CONTINUOUS
 10
1.9638
 20
6.1871
  0
VERTEX
  8
FloorPlan
 62
     1
  6
CONTINUOUS
 10
2.1328
 20
6.1871
  0
VERTEX
  8
FloorPlan
 62
     1
  6
CONTINUOUS
 10
2.1328
 20
6.2031
  0
VERTEX
  8
FloorPlan
 62
     1
  6
CONTINUOUS
 10
1.9638
 20
6.2031
  0
SEQEND
  8
FloorPlan
  0
POLYLINE
  8
FloorPlan
 62
     1
 66
     1
  6
CONTINUOUS
  0
VERTEX
  8
FloorPlan
 62
     1
  6
CONTINUOUS
 10
1.5366
 20
6.2031
  0
VERTEX
  8
FloorPlan
 62
     1
  6
CONTINUOUS
 10
1.1954
 20
6.2031
  0
VERTEX
  8
FloorPlan
 62
     1
  6
CONTINUOUS
 10
1.1954
 20
6.1871
  0
SEQEND
  8
FloorPlan
  0
POLYLINE
  8
FloorPlan
 62
     1
 66
     1
  6
CONTINUOUS
  0
VERTEX
  8
FloorPlan
 62
     1
  6
CONTINUOUS
 10
1.9638
 20
6.2031
  0
VERTEX
  8
FloorPlan
 62
     1
  6
CONTINUOUS
 10
1.9638
 20
6.1871
  0
SEQEND
  8
FloorPlan
  0
POLYLINE
  8
FloorPlan
 62
     1
 66
     1
  6
CONTINUOUS
  0
VERTEX
  8
FloorPlan
 62
     1
  6
CONTINUOUS
 10
1.5366
 20
6.2031
  0
VERTEX
  8
FloorPlan
 62
     1
  6
CONTINUOUS
 10
1.5366
 20
6.1871
  0
SEQEND
  8
FloorPlan
  0
POLYLINE
  8
FloorPlan
 62
     1
 66
     1
  6
CONTINUOUS
  0
VERTEX
  8
FloorPlan
 62
     1
  6
CONTINUOUS
 10
9.0121
 20
6.1903
  0
VERTEX
  8
FloorPlan
 62
     1
  6
CONTINUOUS
 10
9.5136
 20
6.1903
  0
VERTEX
  8
FloorPlan
 62
     1
  6
CONTINUOUS
 10
9.5136
 20
6.2064
  0
VERTEX
  8
FloorPlan
 62
     1
  6
CONTINUOUS
 10
9.0121
 20
6.2064
  0
VERTEX
  8
FloorPlan
 62
     1
  6
CONTINUOUS
 10
9.0121
 20
6.1903
  0
SEQEND
  8
FloorPlan
  0
POLYLINE
  8
FloorPlan
 62
     1
 66
     1
  6
CONTINUOUS
  0
VERTEX
  8
FloorPlan
 62
     1
  6
CONTINUOUS
 10
7.0067
 20
6.1903
  0
VERTEX
  8
FloorPlan
 62
     1
  6
CONTINUOUS
 10
7.5000
 20
6.1903
  0
VERTEX
  8
FloorPlan
 62
     1
  6
CONTINUOUS
 10
7.5000
 20
6.2064
  0
VERTEX
  8
FloorPlan
 62
     1
  6
CONTINUOUS
 10
7.0067
 20
6.2064
  0
VERTEX
  8
FloorPlan
 62
     1
  6
CONTINUOUS
 10
7.0067
 20
6.1903
  0
SEQEND
  8
FloorPlan
  0
POLYLINE
  8
FloorPlan
 62
     1
 66
     1
  6
CONTINUOUS
  0
VERTEX
  8
FloorPlan
 62
     1
  6
CONTINUOUS
 10
10.8494
 20
3.7855
  0
VERTEX
  8
FloorPlan
 62
     1
  6
CONTINUOUS
 10
10.7420
 20
3.7855
  0
SEQEND
  8
FloorPlan
  0
POLYLINE
  8
FloorPlan
 62
     1
 66
     1
  6
CONTINUOUS
  0
VERTEX
  8
FloorPlan
 62
     1
  6
CONTINUOUS
 10
12.4500
 20
4.8473
  0
VERTEX
  8
FloorPlan
 62
     1
  6
CONTINUOUS
 10
12.4500
 20
4.8056
  0
SEQEND
  8
FloorPlan
  0
POLYLINE
  8
FloorPlan
 62
     1
 66
     1
  6
CONTINUOUS
  0
VERTEX
  8
FloorPlan
 62
     1
  6
CONTINUOUS
 10
13.0558
 20
4.8056
  0
VERTEX
  8
FloorPlan
 62
     1
  6
CONTINUOUS
 10
13.0558
 20
4.8468
  0
SEQEND
  8
FloorPlan
  0
POLYLINE
  8
FloorPlan
 62
     1
 66
     1
  6
CONTINUOUS
  0
VERTEX
  8
FloorPlan
 62
     1
  6
CONTINUOUS
 10
4.1468
 20
3.7715
  0
VERTEX
  8
FloorPlan
 62
     1
  6
CONTINUOUS
 10
4.2086
 20
3.7715
  0
SEQEND
  8
FloorPlan
  0
POLYLINE
  8
FloorPlan
 62
     1
 66
     1
  6
CONTINUOUS
  0
VERTEX
  8
FloorPlan
 62
     1
  6
CONTINUOUS
 10
4.1505
 20
4.1732
  0
VERTEX
  8
FloorPlan
 62
     1
  6
CONTINUOUS
 10
4.2103
 20
4.1732
  0
SEQEND
  8
FloorPlan
  0
POLYLINE
  8
FloorPlan
 62
     1
 66
     1
  6
CONTINUOUS
  0
VERTEX
  8
FloorPlan
 62
     1
  6
CONTINUOUS
 10
2.4120
 20
5.1070
  0
VERTEX
  8
FloorPlan
 62
     1
  6
CONTINUOUS
 10
2.4121
 20
5.0647
  0
SEQEND
  8
FloorPlan
  0
POLYLINE
  8
FloorPlan
 62
     1
 66
     1
  6
CONTINUOUS
  0
VERTEX
  8
FloorPlan
 62
     1
  6
CONTINUOUS
 10
2.3477
 20
5.0641
  0
VERTEX
  8
FloorPlan
 62
     1
  6
CONTINUOUS
 10
2.4121
 20
5.0647
  0
SEQEND
  8
FloorPlan
  0
POLYLINE
  8
FloorPlan
 62
     1
 66
     1
  6
CONTINUOUS
  0
VERTEX
  8
FloorPlan
 62
     1
  6
CONTINUOUS
 10
2.7486
 20
5.1070
  0
VERTEX
  8
FloorPlan
 62
     1
  6
CONTINUOUS
 10
2.7124
 20
5.1070
  0
SEQEND
  8
FloorPlan
  0
POLYLINE
  8
FloorPlan
 62
     1
 66
     1
  6
CONTINUOUS
  0
VERTEX
  8
FloorPlan
 62
     1
  6
CONTINUOUS
 10
2.4121
 20
5.1070
  0
VERTEX
  8
FloorPlan
 62
     1
  6
CONTINUOUS
 10
2.3467
 20
5.1074
  0
SEQEND
  8
FloorPlan
  0
POLYLINE
  8
FloorPlan
 62
     1
 66
     1
  6
CONTINUOUS
  0
VERTEX
  8
FloorPlan
 62
     1
  6
CONTINUOUS
 10
3.3676
 20
5.1076
  0
VERTEX
  8
FloorPlan
 62
     1
  6
CONTINUOUS
 10
3.3676
 20
5.0641
  0
SEQEND
  8
FloorPlan
  0
POLYLINE
  8
FloorPlan
 62
     1
 66
     1
  6
CONTINUOUS
  0
VERTEX
  8
FloorPlan
 62
     1
  6
CONTINUOUS
 10
3.6679
 20
5.1076
  0
VERTEX
  8
FloorPlan
 62
     1
  6
CONTINUOUS
 10
3.6679
 20
5.0641
  0
SEQEND
  8
FloorPlan
  0
POLYLINE
  8
FloorPlan
 62
     1
 66
     1
  6
CONTINUOUS
  0
VERTEX
  8
FloorPlan
 62
     1
  6
CONTINUOUS
 10
4.6363
 20
3.5977
  0
VERTEX
  8
FloorPlan
 62
     1
  6
CONTINUOUS
 10
4.3735
 20
3.4460
  0
VERTEX
  8
FloorPlan
 62
     1
  6
CONTINUOUS
 10
4.3655
 20
3.4598
  0
VERTEX
  8
FloorPlan
 62
     1
  6
CONTINUOUS
 10
4.6283
 20
3.6116
  0
VERTEX
  8
FloorPlan
 62
     1
  6
CONTINUOUS
 10
4.6363
 20
3.5977
  0
SEQEND
  8
FloorPlan
  0
ARC
  8
FloorPlan
 62
     1
  6
CONTINUOUS
 10
4.6363
 20
3.5977
 40
0.3035
 50
180.0000
 51
-89.9528
  0
POLYLINE
  8
FloorPlan
 62
     1
 66
     1
  6
CONTINUOUS
  0
VERTEX
  8
FloorPlan
 62
     1
  6
CONTINUOUS
 10
3.6679
 20
5.1076
  0
VERTEX
  8
FloorPlan
 62
     1
  6
CONTINUOUS
 10
3.6679
 20
5.1076
  0
SEQEND
  8
FloorPlan
  0
POLYLINE
  8
FloorPlan
 62
     1
 66
     1
  6
CONTINUOUS
  0
VERTEX
  8
FloorPlan
 62
     1
  6
CONTINUOUS
 10
3.4051
 20
5.2593
  0
VERTEX
  8
FloorPlan
 62
     1
  6
CONTINUOUS
 10
3.4051
 20
5.2593
  0
SEQEND
  8
FloorPlan
  0
POLYLINE
  8
FloorPlan
 62
     1
 66
     1
  6
CONTINUOUS
  0
VERTEX
  8
FloorPlan
 62
     1
  6
CONTINUOUS
 10
3.6679
 20
5.1076
  0
VERTEX
  8
FloorPlan
 62
     1
  6
CONTINUOUS
 10
3.4051
 20
5.2593
  0
VERTEX
  8
FloorPlan
 62
     1
  6
CONTINUOUS
 10
3.3971
 20
5.2454
  0
VERTEX
  8
FloorPlan
 62
     1
  6
CONTINUOUS
 10
3.6599
 20
5.0937
  0
VERTEX
  8
FloorPlan
 62
     1
  6
CONTINUOUS
 10
3.6679
 20
5.1076
  0
SEQEND
  8
FloorPlan
  0
ARC
  8
FloorPlan
 62
     1
  6
CONTINUOUS
 10
3.6679
 20
5.1076
 40
0.3035
 50
89.9528
 51
180.0000
  0
POLYLINE
  8
FloorPlan
 62
     1
 66
     1
  6
CONTINUOUS
  0
VERTEX
  8
FloorPlan
 62
     1
  6
CONTINUOUS
 10
2.4495
 20
5.2588
  0
VERTEX
  8
FloorPlan
 62
     1
  6
CONTINUOUS
 10
2.4495
 20
5.2588
  0
SEQEND
  8
FloorPlan
  0
POLYLINE
  8
FloorPlan
 62
     1
 66
     1
  6
CONTINUOUS
  0
VERTEX
  8
FloorPlan
 62
     1
  6
CONTINUOUS
 10
2.7124
 20
5.1070
  0
VERTEX
  8
FloorPlan
 62
     1
  6
CONTINUOUS
 10
2.4495
 20
5.2588
  0
VERTEX
  8
FloorPlan
 62
     1
  6
CONTINUOUS
 10
2.4415
 20
5.2449
  0
VERTEX
  8
FloorPlan
 62
     1
  6
CONTINUOUS
 10
2.7044
 20
5.0931
  0
VERTEX
  8
FloorPlan
 62
     1
  6
CONTINUOUS
 10
2.7124
 20
5.1070
  0
SEQEND
  8
FloorPlan
  0
ARC
  8
FloorPlan
 62
     1
  6
CONTINUOUS
 10
2.7124
 20
5.1070
 40
0.3035
 50
89.9540
 51
180.0000
  0
POLYLINE
  8
FloorPlan
 62
     1
 66
     1
  6
CONTINUOUS
  0
VERTEX
  8
FloorPlan
 62
     1
  6
CONTINUOUS
 10
4.1468
 20
3.7715
  0
VERTEX
  8
FloorPlan
 62
     1
  6
CONTINUOUS
 10
3.9460
 20
4.1194
  0
VERTEX
  8
FloorPlan
 62
     1
  6
CONTINUOUS
 10
3.9598
 20
4.1273
  0
VERTEX
  8
FloorPlan
 62
     1
  6
CONTINUOUS
 10
4.1606
 20
3.7795
  0
VERTEX
  8
FloorPlan
 62
     1
  6
CONTINUOUS
 10
4.1468
 20
3.7715
  0
SEQEND
  8
FloorPlan
  0
POLYLINE
  8
FloorPlan
 62
     1
 66
     1
  6
CONTINUOUS
  0
VERTEX
  8
FloorPlan
 62
     1
  6
CONTINUOUS
 10
2.7124
 20
5.0639
  0
VERTEX
  8
FloorPlan
 62
     1
  6
CONTINUOUS
 10
2.7124
 20
5.1070
  0
SEQEND
  8
FloorPlan
  0
POLYLINE
  8
FloorPlan
 62
     1
 66
     1
  6
CONTINUOUS
  0
VERTEX
  8
FloorPlan
 62
     1
  6
CONTINUOUS
 10
4.2941
 20
5.0606
  0
VERTEX
  8
FloorPlan
 62
     1
  6
CONTINUOUS
 10
4.0041
 20
5.0623
  0
SEQEND
  8
FloorPlan
  0
POLYLINE
  8
FloorPlan
 62
     1
 66
     1
  6
CONTINUOUS
  0
VERTEX
  8
FloorPlan
 62
     1
  6
CONTINUOUS
 10
4.0041
 20
5.0623
  0
VERTEX
  8
FloorPlan
 62
     1
  6
CONTINUOUS
 10
3.6679
 20
5.0641
  0
SEQEND
  8
FloorPlan
  0
POLYLINE
  8
FloorPlan
 62
     1
 66
     1
  6
CONTINUOUS
  0
VERTEX
  8
FloorPlan
 62
     1
  6
CONTINUOUS
 10
4.2527
 20
5.1076
  0
VERTEX
  8
FloorPlan
 62
     1
  6
CONTINUOUS
 10
4.0041
 20
5.1076
  0
SEQEND
  8
FloorPlan
  0
POLYLINE
  8
FloorPlan
 62
     1
 66
     1
  6
CONTINUOUS
  0
VERTEX
  8
FloorPlan
 62
     1
  6
CONTINUOUS
 10
4.0041
 20
5.1076
  0
VERTEX
  8
FloorPlan
 62
     1
  6
CONTINUOUS
 10
3.6679
 20
5.1076
  0
SEQEND
  8
FloorPlan
  0
POLYLINE
  8
FloorPlan
 62
     1
 66
     1
  6
CONTINUOUS
  0
VERTEX
  8
FloorPlan
 62
     1
  6
CONTINUOUS
 10
1.9630
 20
6.0938
  0
VERTEX
  8
FloorPlan
 62
     1
  6
CONTINUOUS
 10
2.1292
 20
6.0938
  0
VERTEX
  8
FloorPlan
 62
     1
  6
CONTINUOUS
 10
2.1292
 20
6.0280
  0
VERTEX
  8
FloorPlan
 62
     1
  6
CONTINUOUS
 10
1.9630
 20
6.0280
  0
VERTEX
  8
FloorPlan
 62
     1
  6
CONTINUOUS
 10
1.9630
 20
6.0938
  0
SEQEND
  8
FloorPlan
  0
POLYLINE
  8
FloorPlan
 62
     1
 66
     1
  6
CONTINUOUS
  0
VERTEX
  8
FloorPlan
 62
     1
  6
CONTINUOUS
 10
1.9837
 20
6.0280
  0
VERTEX
  8
FloorPlan
 62
     1
  6
CONTINUOUS
 10
1.9837
 20
5.9103
  0
SEQEND
  8
FloorPlan
  0
POLYLINE
  8
FloorPlan
 62
     1
 66
     1
  6
CONTINUOUS
  0
VERTEX
  8
FloorPlan
 62
     1
  6
CONTINUOUS
 10
2.1084
 20
6.0280
  0
VERTEX
  8
FloorPlan
 62
     1
  6
CONTINUOUS
 10
2.1084
 20
5.9103
  0
SEQEND
  8
FloorPlan
  0
ARC
  8
FloorPlan
 62
     1
  6
CONTINUOUS
 10
2.0461
 20
5.9103
 40
0.0623
 50
180.0000
 51
0.0000
  0
POLYLINE
  8
FloorPlan
 62
     1
 66
     1
  6
CONTINUOUS
  0
VERTEX
  8
FloorPlan
 62
     1
  6
CONTINUOUS
 10
1.2026
 20
6.0938
  0
VERTEX
  8
FloorPlan
 62
     1
  6
CONTINUOUS
 10
1.0364
 20
6.0938
  0
VERTEX
  8
FloorPlan
 62
     1
  6
CONTINUOUS
 10
1.0364
 20
6.0280
  0
VERTEX
  8
FloorPlan
 62
     1
  6
CONTINUOUS
 10
1.2026
 20
6.0280
  0
VERTEX
  8
FloorPlan
 62
     1
  6
CONTINUOUS
 10
1.2026
 20
6.0938
  0
SEQEND
  8
FloorPlan
  0
POLYLINE
  8
FloorPlan
 62
     1
 66
     1
  6
CONTINUOUS
  0
VERTEX
  8
FloorPlan
 62
     1
  6
CONTINUOUS
 10
1.1818
 20
6.0280
  0
VERTEX
  8
FloorPlan
 62
     1
  6
CONTINUOUS
 10
1.1818
 20
5.9103
  0
SEQEND
  8
FloorPlan
  0
POLYLINE
  8
FloorPlan
 62
     1
 66
     1
  6
CONTINUOUS
  0
VERTEX
  8
FloorPlan
 62
     1
  6
CONTINUOUS
 10
1.0571
 20
6.0280
  0
VERTEX
  8
FloorPlan
 62
     1
  6
CONTINUOUS
 10
1.0571
 20
5.9103
  0
SEQEND
  8
FloorPlan
  0
ARC
  8
FloorPlan
 62
     1
  6
CONTINUOUS
 10
1.1194
 20
5.9103
 40
0.0623
 50
180.0000
 51
0.0000
  0
POLYLINE
  8
FloorPlan
 62
     1
 66
     1
  6
CONTINUOUS
  0
VERTEX
  8
FloorPlan
 62
     1
  6
CONTINUOUS
 10
1.3570
 20
6.0938
  0
VERTEX
  8
FloorPlan
 62
     1
  6
CONTINUOUS
 10
1.5232
 20
6.0938
  0
VERTEX
  8
FloorPlan
 62
     1
  6
CONTINUOUS
 10
1.5232
 20
6.0280
  0
VERTEX
  8
FloorPlan
 62
     1
  6
CONTINUOUS
 10
1.3570
 20
6.0280
  0
VERTEX
  8
FloorPlan
 62
     1
  6
CONTINUOUS
 10
1.3570
 20
6.0938
  0
SEQEND
  8
FloorPlan
  0
POLYLINE
  8
FloorPlan
 62
     1
 66
     1
  6
CONTINUOUS
  0
VERTEX
  8
FloorPlan
 62
     1
  6
CONTINUOUS
 10
1.3778
 20
6.0280
  0
VERTEX
  8
FloorPlan
 62
     1
  6
CONTINUOUS
 10
1.3778
 20
5.9103
  0
SEQEND
  8
FloorPlan
  0
POLYLINE
  8
FloorPlan
 62
     1
 66
     1
  6
CONTINUOUS
  0
VERTEX
  8
FloorPlan
 62
     1
  6
CONTINUOUS
 10
1.5024
 20
6.0280
  0
VERTEX
  8
FloorPlan
 62
     1
  6
CONTINUOUS
 10
1.5024
 20
5.9103
  0
SEQEND
  8
FloorPlan
  0
ARC
  8
FloorPlan
 62
     1
  6
CONTINUOUS
 10
1.4401
 20
5.9103
 40
0.0623
 50
180.0000
 51
0.0000
  0
POLYLINE
  8
FloorPlan
 62
     1
 66
     1
  6
CONTINUOUS
  0
VERTEX
  8
FloorPlan
 62
     1
  6
CONTINUOUS
 10
1.8587
 20
5.2590
  0
VERTEX
  8
FloorPlan
 62
     1
  6
CONTINUOUS
 10
1.8587
 20
5.2590
  0
SEQEND
  8
FloorPlan
  0
POLYLINE
  8
FloorPlan
 62
     1
 66
     1
  6
CONTINUOUS
  0
VERTEX
  8
FloorPlan
 62
     1
  6
CONTINUOUS
 10
1.8587
 20
5.2590
  0
VERTEX
  8
FloorPlan
 62
     1
  6
CONTINUOUS
 10
1.8587
 20
5.2590
  0
SEQEND
  8
FloorPlan
  0
POLYLINE
  8
FloorPlan
 62
     1
 66
     1
  6
CONTINUOUS
  0
VERTEX
  8
FloorPlan
 62
     1
  6
CONTINUOUS
 10
1.8587
 20
5.2590
  0
VERTEX
  8
FloorPlan
 62
     1
  6
CONTINUOUS
 10
1.8587
 20
5.2590
  0
SEQEND
  8
FloorPlan
  0
POLYLINE
  8
FloorPlan
 62
     1
 66
     1
  6
CONTINUOUS
  0
VERTEX
  8
FloorPlan
 62
     1
  6
CONTINUOUS
 10
2.1215
 20
5.1072
  0
VERTEX
  8
FloorPlan
 62
     1
  6
CONTINUOUS
 10
1.8587
 20
5.2590
  0
VERTEX
  8
FloorPlan
 62
     1
  6
CONTINUOUS
 10
1.8506
 20
5.2451
  0
VERTEX
  8
FloorPlan
 62
     1
  6
CONTINUOUS
 10
2.1135
 20
5.0933
  0
VERTEX
  8
FloorPlan
 62
     1
  6
CONTINUOUS
 10
2.1215
 20
5.1072
  0
SEQEND
  8
FloorPlan
  0
POLYLINE
  8
FloorPlan
 62
     1
 66
     1
  6
CONTINUOUS
  0
VERTEX
  8
FloorPlan
 62
     1
  6
CONTINUOUS
 10
1.2618
 20
5.2592
  0
VERTEX
  8
FloorPlan
 62
     1
  6
CONTINUOUS
 10
1.2618
 20
5.2592
  0
SEQEND
  8
FloorPlan
  0
POLYLINE
  8
FloorPlan
 62
     1
 66
     1
  6
CONTINUOUS
  0
VERTEX
  8
FloorPlan
 62
     1
  6
CONTINUOUS
 10
0.9990
 20
5.1075
  0
VERTEX
  8
FloorPlan
 62
     1
  6
CONTINUOUS
 10
1.2618
 20
5.2592
  0
VERTEX
  8
FloorPlan
 62
     1
  6
CONTINUOUS
 10
1.2698
 20
5.2453
  0
VERTEX
  8
FloorPlan
 62
     1
  6
CONTINUOUS
 10
1.0070
 20
5.0936
  0
VERTEX
  8
FloorPlan
 62
     1
  6
CONTINUOUS
 10
0.9990
 20
5.1075
  0
SEQEND
  8
FloorPlan
  0
POLYLINE
  8
FloorPlan
 62
     1
 66
     1
  6
CONTINUOUS
  0
VERTEX
  8
FloorPlan
 62
     1
  6
CONTINUOUS
 10
1.2718
 20
5.6358
  0
VERTEX
  8
FloorPlan
 62
     1
  6
CONTINUOUS
 10
1.2303
 20
5.6358
  0
VERTEX
  8
FloorPlan
 62
     1
  6
CONTINUOUS
 10
1.2303
 20
5.6531
  0
VERTEX
  8
FloorPlan
 62
     1
  6
CONTINUOUS
 10
1.3307
 20
5.6531
  0
VERTEX
  8
FloorPlan
 62
     1
  6
CONTINUOUS
 10
1.3307
 20
5.6358
  0
VERTEX
  8
FloorPlan
 62
     1
  6
CONTINUOUS
 10
1.2878
 20
5.6358
  0
SEQEND
  8
FloorPlan
  0
POLYLINE
  8
FloorPlan
 62
     1
 66
     1
  6
CONTINUOUS
  0
VERTEX
  8
FloorPlan
 62
     1
  6
CONTINUOUS
 10
1.5890
 20
5.6358
  0
VERTEX
  8
FloorPlan
 62
     1
  6
CONTINUOUS
 10
1.5371
 20
5.6358
  0
VERTEX
  8
FloorPlan
 62
     1
  6
CONTINUOUS
 10
1.5371
 20
5.6531
  0
VERTEX
  8
FloorPlan
 62
     1
  6
CONTINUOUS
 10
1.5890
 20
5.6531
  0
SEQEND
  8
FloorPlan
  0
POLYLINE
  8
FloorPlan
 62
     1
 66
     1
  6
CONTINUOUS
  0
VERTEX
  8
FloorPlan
 62
     1
  6
CONTINUOUS
 10
0.9692
 20
5.6358
  0
VERTEX
  8
FloorPlan
 62
     1
  6
CONTINUOUS
 10
1.0212
 20
5.6358
  0
VERTEX
  8
FloorPlan
 62
     1
  6
CONTINUOUS
 10
1.0212
 20
5.6531
  0
VERTEX
  8
FloorPlan
 62
     1
  6
CONTINUOUS
 10
0.9692
 20
5.6531
  0
SEQEND
  8
FloorPlan
  0
POLYLINE
  8
FloorPlan
 62
     1
 66
     1
  6
CONTINUOUS
  0
VERTEX
  8
FloorPlan
 62
     1
  6
CONTINUOUS
 10
1.5371
 20
5.6531
  0
VERTEX
  8
FloorPlan
 62
     1
  6
CONTINUOUS
 10
1.5284
 20
5.6381
  0
VERTEX
  8
FloorPlan
 62
     1
  6
CONTINUOUS
 10
1.3497
 20
5.7413
  0
VERTEX
  8
FloorPlan
 62
     1
  6
CONTINUOUS
 10
1.3583
 20
5.7563
  0
VERTEX
  8
FloorPlan
 62
     1
  6
CONTINUOUS
 10
1.5371
 20
5.6531
  0
SEQEND
  8
FloorPlan
  0
POLYLINE
  8
FloorPlan
 62
     1
 66
     1
  6
CONTINUOUS
  0
VERTEX
  8
FloorPlan
 62
     1
  6
CONTINUOUS
 10
1.2303
 20
5.6531
  0
VERTEX
  8
FloorPlan
 62
     1
  6
CONTINUOUS
 10
1.2216
 20
5.6381
  0
VERTEX
  8
FloorPlan
 62
     1
  6
CONTINUOUS
 10
1.0428
 20
5.7413
  0
VERTEX
  8
FloorPlan
 62
     1
  6
CONTINUOUS
 10
1.0515
 20
5.7563
  0
VERTEX
  8
FloorPlan
 62
     1
  6
CONTINUOUS
 10
1.2303
 20
5.6531
  0
SEQEND
  8
FloorPlan
  0
ARC
  8
FloorPlan
 62
     1
  6
CONTINUOUS
 10
1.2303
 20
5.6531
 40
0.2078
 50
90.3706
 51
180.0000
  0
ARC
  8
FloorPlan
 62
     1
  6
CONTINUOUS
 10
1.5371
 20
5.6531
 40
0.2077
 50
90.0000
 51
180.0000
  0
POLYLINE
  8
FloorPlan
 62
     1
 66
     1
  6
CONTINUOUS
  0
VERTEX
  8
FloorPlan
 62
     1
  6
CONTINUOUS
 10
4.2086
 20
3.6384
  0
VERTEX
  8
FloorPlan
 62
     1
  6
CONTINUOUS
 10
4.2085
 20
3.7014
  0
SEQEND
  8
FloorPlan
  0
POLYLINE
  8
FloorPlan
 62
     1
 66
     1
  6
CONTINUOUS
  0
VERTEX
  8
FloorPlan
 62
     1
  6
CONTINUOUS
 10
4.2085
 20
3.7014
  0
VERTEX
  8
FloorPlan
 62
     1
  6
CONTINUOUS
 10
4.2086
 20
3.7715
  0
SEQEND
  8
FloorPlan
  0
POLYLINE
  8
FloorPlan
 62
     1
 66
     1
  6
CONTINUOUS
  0
VERTEX
  8
FloorPlan
 62
     1
  6
CONTINUOUS
 10
4.1484
 20
4.2996
  0
VERTEX
  8
FloorPlan
 62
     1
  6
CONTINUOUS
 10
4.1505
 20
4.1732
  0
SEQEND
  8
FloorPlan
  0
POLYLINE
  8
FloorPlan
 62
     1
 66
     1
  6
CONTINUOUS
  0
VERTEX
  8
FloorPlan
 62
     1
  6
CONTINUOUS
 10
4.1468
 20
3.7715
  0
VERTEX
  8
FloorPlan
 62
     1
  6
CONTINUOUS
 10
4.1474
 20
3.7014
  0
SEQEND
  8
FloorPlan
  0
POLYLINE
  8
FloorPlan
 62
     1
 66
     1
  6
CONTINUOUS
  0
VERTEX
  8
FloorPlan
 62
     1
  6
CONTINUOUS
 10
4.1474
 20
3.7014
  0
VERTEX
  8
FloorPlan
 62
     1
  6
CONTINUOUS
 10
4.1479
 20
3.6384
  0
SEQEND
  8
FloorPlan
  0
POLYLINE
  8
FloorPlan
 62
     1
 66
     1
  6
CONTINUOUS
  0
VERTEX
  8
FloorPlan
 62
     1
  6
CONTINUOUS
 10
4.2103
 20
4.1732
  0
VERTEX
  8
FloorPlan
 62
     1
  6
CONTINUOUS
 10
4.2086
 20
4.2996
  0
SEQEND
  8
FloorPlan
  0
POLYLINE
  8
FloorPlan
 62
     1
 66
     1
  6
CONTINUOUS
  0
VERTEX
  8
FloorPlan
 62
     1
  6
CONTINUOUS
 10
4.1454
 20
4.6157
  0
VERTEX
  8
FloorPlan
 62
     1
  6
CONTINUOUS
 10
4.1484
 20
4.2996
  0
SEQEND
  8
FloorPlan
  0
POLYLINE
  8
FloorPlan
 62
     1
 66
     1
  6
CONTINUOUS
  0
VERTEX
  8
FloorPlan
 62
     1
  6
CONTINUOUS
 10
4.2086
 20
4.2996
  0
VERTEX
  8
FloorPlan
 62
     1
  6
CONTINUOUS
 10
4.2060
 20
4.6609
  0
SEQEND
  8
FloorPlan
  0
ARC
  8
FloorPlan
 62
     1
  6
CONTINUOUS
 10
4.1468
 20
3.7715
 40
0.4016
 50
89.4838
 51
199.5724
  0
POLYLINE
  8
FloorPlan
 62
     1
 66
     1
  6
CONTINUOUS
  0
VERTEX
  8
FloorPlan
 62
     1
  6
CONTINUOUS
 10
4.3328
 20
3.5977
  0
VERTEX
  8
FloorPlan
 62
     1
  6
CONTINUOUS
 10
2.3374
 20
3.5977
  0
SEQEND
  8
FloorPlan
  0
POLYLINE
  8
FloorPlan
 62
     1
 66
     1
  6
CONTINUOUS
  0
VERTEX
  8
FloorPlan
 62
     1
  6
CONTINUOUS
 10
2.2924
 20
2.8962
  0
VERTEX
  8
FloorPlan
 62
     1
  6
CONTINUOUS
 10
2.2924
 20
4.6114
  0
SEQEND
  8
FloorPlan
  0
POLYLINE
  8
FloorPlan
 62
     1
 66
     1
  6
CONTINUOUS
  0
VERTEX
  8
FloorPlan
 62
     1
  6
CONTINUOUS
 10
2.3374
 20
3.5977
  0
VERTEX
  8
FloorPlan
 62
     1
  6
CONTINUOUS
 10
2.3375
 20
2.8962
  0
VERTEX
  8
FloorPlan
 62
     1
  6
CONTINUOUS
 10
2.2924
 20
2.8962
  0
SEQEND
  8
FloorPlan
  0
POLYLINE
  8
FloorPlan
 62
     1
 66
     1
  6
CONTINUOUS
  0
VERTEX
  8
FloorPlan
 62
     1
  6
CONTINUOUS
 10
4.2060
 20
4.6609
  0
VERTEX
  8
FloorPlan
 62
     1
  6
CONTINUOUS
 10
2.1301
 20
4.6591
  0
SEQEND
  8
FloorPlan
  0
POLYLINE
  8
FloorPlan
 62
     1
 66
     1
  6
CONTINUOUS
  0
VERTEX
  8
FloorPlan
 62
     1
  6
CONTINUOUS
 10
2.1301
 20
4.6132
  0
VERTEX
  8
FloorPlan
 62
     1
  6
CONTINUOUS
 10
2.1301
 20
4.6591
  0
SEQEND
  8
FloorPlan
  0
POLYLINE
  8
FloorPlan
 62
     1
 66
     1
  6
CONTINUOUS
  0
VERTEX
  8
FloorPlan
 62
     1
  6
CONTINUOUS
 10
1.8285
 20
4.6132
  0
VERTEX
  8
FloorPlan
 62
     1
  6
CONTINUOUS
 10
1.8285
 20
4.6591
  0
SEQEND
  8
FloorPlan
  0
POLYLINE
  8
FloorPlan
 62
     1
 66
     1
  6
CONTINUOUS
  0
VERTEX
  8
FloorPlan
 62
     1
  6
CONTINUOUS
 10
1.8285
 20
4.6082
  0
VERTEX
  8
FloorPlan
 62
     1
  6
CONTINUOUS
 10
0.9671
 20
4.6082
  0
SEQEND
  8
FloorPlan
  0
POLYLINE
  8
FloorPlan
 62
     1
 66
     1
  6
CONTINUOUS
  0
VERTEX
  8
FloorPlan
 62
     1
  6
CONTINUOUS
 10
0.9671
 20
4.6582
  0
VERTEX
  8
FloorPlan
 62
     1
  6
CONTINUOUS
 10
1.8285
 20
4.6582
  0
SEQEND
  8
FloorPlan
  0
POLYLINE
  8
FloorPlan
 62
     1
 66
     1
  6
CONTINUOUS
  0
VERTEX
  8
FloorPlan
 62
     1
  6
CONTINUOUS
 10
1.6273
 20
6.1181
  0
VERTEX
  8
FloorPlan
 62
     1
  6
CONTINUOUS
 10
1.6273
 20
5.7244
  0
SEQEND
  8
FloorPlan
  0
POLYLINE
  8
FloorPlan
 62
     1
 66
     1
  6
CONTINUOUS
  0
VERTEX
  8
FloorPlan
 62
     1
  6
CONTINUOUS
 10
1.6273
 20
5.9014
  0
VERTEX
  8
FloorPlan
 62
     1
  6
CONTINUOUS
 10
1.8796
 20
5.9014
  0
SEQEND
  8
FloorPlan
  0
POLYLINE
  8
FloorPlan
 62
     1
 66
     1
  6
CONTINUOUS
  0
VERTEX
  8
FloorPlan
 62
     1
  6
CONTINUOUS
 10
1.6273
 20
6.1194
  0
VERTEX
  8
FloorPlan
 62
     1
  6
CONTINUOUS
 10
1.6273
 20
6.1194
  0
SEQEND
  8
FloorPlan
  0
POLYLINE
  8
FloorPlan
 62
     1
 66
     1
  6
CONTINUOUS
  0
VERTEX
  8
FloorPlan
 62
     1
  6
CONTINUOUS
 10
1.6278
 20
5.4506
  0
VERTEX
  8
FloorPlan
 62
     1
  6
CONTINUOUS
 10
1.7654
 20
5.4506
  0
VERTEX
  8
FloorPlan
 62
     1
  6
CONTINUOUS
 10
1.7654
 20
5.1080
  0
SEQEND
  8
FloorPlan
  0
POLYLINE
  8
FloorPlan
 62
     1
 66
     1
  6
CONTINUOUS
  0
VERTEX
  8
FloorPlan
 62
     1
  6
CONTINUOUS
 10
1.6273
 20
5.7244
  0
VERTEX
  8
FloorPlan
 62
     1
  6
CONTINUOUS
 10
1.6278
 20
5.4506
  0
SEQEND
  8
FloorPlan
  0
POLYLINE
  8
FloorPlan
 62
     1
 66
     1
  6
CONTINUOUS
  0
VERTEX
  8
FloorPlan
 62
     1
  6
CONTINUOUS
 10
1.5059
 20
5.4090
  0
VERTEX
  8
FloorPlan
 62
     1
  6
CONTINUOUS
 10
1.7239
 20
5.4090
  0
VERTEX
  8
FloorPlan
 62
     1
  6
CONTINUOUS
 10
1.7239
 20
5.2533
  0
SEQEND
  8
FloorPlan
  0
POLYLINE
  8
FloorPlan
 62
     1
 66
     1
  6
CONTINUOUS
  0
VERTEX
  8
FloorPlan
 62
     1
  6
CONTINUOUS
 10
1.7239
 20
5.1080
  0
VERTEX
  8
FloorPlan
 62
     1
  6
CONTINUOUS
 10
1.7239
 20
5.4090
  0
SEQEND
  8
FloorPlan
  0
POLYLINE
  8
FloorPlan
 62
     1
 66
     1
  6
CONTINUOUS
  0
VERTEX
  8
FloorPlan
 62
     1
  6
CONTINUOUS
 10
1.5059
 20
5.1080
  0
VERTEX
  8
FloorPlan
 62
     1
  6
CONTINUOUS
 10
1.5059
 20
5.4090
  0
SEQEND
  8
FloorPlan
  0
POLYLINE
  8
FloorPlan
 62
     1
 66
     1
  6
CONTINUOUS
  0
VERTEX
  8
FloorPlan
 62
     1
  6
CONTINUOUS
 10
2.3378
 20
3.6384
  0
VERTEX
  8
FloorPlan
 62
     1
  6
CONTINUOUS
 10
4.2762
 20
3.6384
  0
SEQEND
  8
FloorPlan
  0
POLYLINE
  8
FloorPlan
 62
     1
 66
     1
  6
CONTINUOUS
  0
VERTEX
  8
FloorPlan
 62
     1
  6
CONTINUOUS
 10
2.3374
 20
3.5945
  0
VERTEX
  8
FloorPlan
 62
     1
  6
CONTINUOUS
 10
2.3374
 20
4.6128
  0
SEQEND
  8
FloorPlan
  0
POLYLINE
  8
FloorPlan
 62
     1
 66
     1
  6
CONTINUOUS
  0
VERTEX
  8
FloorPlan
 62
     1
  6
CONTINUOUS
 10
2.1214
 20
4.6284
  0
VERTEX
  8
FloorPlan
 62
     1
  6
CONTINUOUS
 10
1.8602
 20
4.4776
  0
VERTEX
  8
FloorPlan
 62
     1
  6
CONTINUOUS
 10
1.8689
 20
4.4626
  0
VERTEX
  8
FloorPlan
 62
     1
  6
CONTINUOUS
 10
2.1301
 20
4.6132
  0
VERTEX
  8
FloorPlan
 62
     1
  6
CONTINUOUS
 10
2.1214
 20
4.6284
  0
SEQEND
  8
FloorPlan
  0
ARC
  8
FloorPlan
 62
     1
  6
CONTINUOUS
 10
2.1301
 20
4.6132
 40
0.3015
 50
180.0012
 51
-57.2257
  0
POLYLINE
  8
FloorPlan
 62
     1
 66
     1
  6
CONTINUOUS
  0
VERTEX
  8
FloorPlan
 62
     1
  6
CONTINUOUS
 10
11.2490
 20
4.8056
  0
VERTEX
  8
FloorPlan
 62
     1
  6
CONTINUOUS
 10
11.2490
 20
6.1602
  0
SEQEND
  8
FloorPlan
  0
POLYLINE
  8
FloorPlan
 62
     1
 66
     1
  6
CONTINUOUS
  0
VERTEX
  8
FloorPlan
 62
     1
  6
CONTINUOUS
 10
11.2911
 20
4.8477
  0
VERTEX
  8
FloorPlan
 62
     1
  6
CONTINUOUS
 10
11.2911
 20
6.1602
  0
SEQEND
  8
FloorPlan
  0
POLYLINE
  8
FloorPlan
 62
     1
 66
     1
  6
CONTINUOUS
  0
VERTEX
  8
FloorPlan
 62
     1
  6
CONTINUOUS
 10
12.4500
 20
4.8473
  0
VERTEX
  8
FloorPlan
 62
     1
  6
CONTINUOUS
 10
12.3651
 20
4.8468
  0
SEQEND
  8
FloorPlan
  0
POLYLINE
  8
FloorPlan
 62
     1
 66
     1
  6
CONTINUOUS
  0
VERTEX
  8
FloorPlan
 62
     1
  6
CONTINUOUS
 10
12.4500
 20
4.8056
  0
VERTEX
  8
FloorPlan
 62
     1
  6
CONTINUOUS
 10
12.7125
 20
4.6540
  0
VERTEX
  8
FloorPlan
 62
     1
  6
CONTINUOUS
 10
12.7219
 20
4.6720
  0
VERTEX
  8
FloorPlan
 62
     1
  6
CONTINUOUS
 10
12.4582
 20
4.8197
  0
VERTEX
  8
FloorPlan
 62
     1
  6
CONTINUOUS
 10
12.4500
 20
4.8056
  0
SEQEND
  8
FloorPlan
  0
ARC
  8
FloorPlan
 62
     1
  6
CONTINUOUS
 10
12.4500
 20
4.8056
 40
0.3029
 50
180.0000
 51
0.0000
  0
POLYLINE
  8
FloorPlan
 62
     1
 66
     1
  6
CONTINUOUS
  0
VERTEX
  8
FloorPlan
 62
     1
  6
CONTINUOUS
 10
12.3230
 20
4.8047
  0
VERTEX
  8
FloorPlan
 62
     1
  6
CONTINUOUS
 10
12.4500
 20
4.8056
  0
SEQEND
  8
FloorPlan
  0
POLYLINE
  8
FloorPlan
 62
     1
 66
     1
  6
CONTINUOUS
  0
VERTEX
  8
FloorPlan
 62
     1
  6
CONTINUOUS
 10
13.0558
 20
4.8056
  0
VERTEX
  8
FloorPlan
 62
     1
  6
CONTINUOUS
 10
12.7931
 20
4.6540
  0
VERTEX
  8
FloorPlan
 62
     1
  6
CONTINUOUS
 10
12.7840
 20
4.6720
  0
VERTEX
  8
FloorPlan
 62
     1
  6
CONTINUOUS
 10
13.0477
 20
4.8197
  0
VERTEX
  8
FloorPlan
 62
     1
  6
CONTINUOUS
 10
13.0558
 20
4.8056
  0
SEQEND
  8
FloorPlan
  0
ARC
  8
FloorPlan
 62
     1
  6
CONTINUOUS
 10
13.0558
 20
4.8056
 40
0.3029
 50
180.0000
 51
0.0012
  0
POLYLINE
  8
FloorPlan
 62
     1
 66
     1
  6
CONTINUOUS
  0
VERTEX
  8
FloorPlan
 62
     1
  6
CONTINUOUS
 10
14.2534
 20
4.8482
  0
VERTEX
  8
FloorPlan
 62
     1
  6
CONTINUOUS
 10
13.0558
 20
4.8468
  0
SEQEND
  8
FloorPlan
  0
POLYLINE
  8
FloorPlan
 62
     1
 66
     1
  6
CONTINUOUS
  0
VERTEX
  8
FloorPlan
 62
     1
  6
CONTINUOUS
 10
12.4500
 20
4.8473
  0
VERTEX
  8
FloorPlan
 62
     1
  6
CONTINUOUS
 10
11.2911
 20
4.8475
  0
SEQEND
  8
FloorPlan
  0
POLYLINE
  8
FloorPlan
 62
     1
 66
     1
  6
CONTINUOUS
  0
VERTEX
  8
FloorPlan
 62
     1
  6
CONTINUOUS
 10
14.2534
 20
4.8056
  0
VERTEX
  8
FloorPlan
 62
     1
  6
CONTINUOUS
 10
13.0558
 20
4.8056
  0
SEQEND
  8
FloorPlan
  0
POLYLINE
  8
FloorPlan
 62
     1
 66
     1
  6
CONTINUOUS
  0
VERTEX
  8
FloorPlan
 62
     1
  6
CONTINUOUS
 10
12.4500
 20
4.8042
  0
VERTEX
  8
FloorPlan
 62
     1
  6
CONTINUOUS
 10
11.2490
 20
4.8067
  0
SEQEND
  8
FloorPlan
  0
POLYLINE
  8
FloorPlan
 62
     1
 66
     1
  6
CONTINUOUS
  0
VERTEX
  8
FloorPlan
 62
     1
  6
CONTINUOUS
 10
4.6059
 20
4.6169
  0
VERTEX
  8
FloorPlan
 62
     1
  6
CONTINUOUS
 10
5.7504
 20
4.6166
  0
SEQEND
  8
FloorPlan
  0
POLYLINE
  8
FloorPlan
 62
     1
 66
     1
  6
CONTINUOUS
  0
VERTEX
  8
FloorPlan
 62
     1
  6
CONTINUOUS
 10
5.7504
 20
4.6610
  0
VERTEX
  8
FloorPlan
 62
     1
  6
CONTINUOUS
 10
4.6059
 20
4.6609
  0
SEQEND
  8
FloorPlan
  0
POLYLINE
  8
FloorPlan
 62
     1
 66
     1
  6
CONTINUOUS
  0
VERTEX
  8
FloorPlan
 62
     1
  6
CONTINUOUS
 10
4.6059
 20
4.6169
  0
VERTEX
  8
FloorPlan
 62
     1
  6
CONTINUOUS
 10
4.6059
 20
4.6609
  0
SEQEND
  8
FloorPlan
  0
POLYLINE
  8
FloorPlan
 62
     1
 66
     1
  6
CONTINUOUS
  0
VERTEX
  8
FloorPlan
 62
     1
  6
CONTINUOUS
 10
5.7556
 20
2.7931
  0
VERTEX
  8
FloorPlan
 62
     1
  6
CONTINUOUS
 10
5.5235
 20
2.7931
  0
VERTEX
  8
FloorPlan
 62
     1
  6
CONTINUOUS
 10
5.5235
 20
3.1026
  0
VERTEX
  8
FloorPlan
 62
     1
  6
CONTINUOUS
 10
5.7556
 20
3.1026
  0
SEQEND
  8
FloorPlan
  0
POLYLINE
  8
FloorPlan
 62
     1
 66
     1
  6
CONTINUOUS
  0
VERTEX
  8
FloorPlan
 62
     1
  6
CONTINUOUS
 10
5.5235
 20
3.1026
  0
VERTEX
  8
FloorPlan
 62
     1
  6
CONTINUOUS
 10
5.5235
 20
3.7256
  0
VERTEX
  8
FloorPlan
 62
     1
  6
CONTINUOUS
 10
5.7556
 20
3.7256
  0
SEQEND
  8
FloorPlan
  0
POLYLINE
  8
FloorPlan
 62
     1
 66
     1
  6
CONTINUOUS
  0
VERTEX
  8
FloorPlan
 62
     1
  6
CONTINUOUS
 10
5.6253
 20
2.7931
  0
VERTEX
  8
FloorPlan
 62
     1
  6
CONTINUOUS
 10
5.6253
 20
2.3940
  0
SEQEND
  8
FloorPlan
  0
POLYLINE
  8
FloorPlan
 62
     1
 66
     1
  6
CONTINUOUS
  0
VERTEX
  8
FloorPlan
 62
     1
  6
CONTINUOUS
 10
5.6130
 20
2.7931
  0
VERTEX
  8
FloorPlan
 62
     1
  6
CONTINUOUS
 10
5.6130
 20
2.3940
  0
SEQEND
  8
FloorPlan
  0
POLYLINE
  8
FloorPlan
 62
     1
 66
     1
  6
CONTINUOUS
  0
VERTEX
  8
FloorPlan
 62
     1
  6
CONTINUOUS
 10
5.3683
 20
3.0558
  0
VERTEX
  8
FloorPlan
 62
     1
  6
CONTINUOUS
 10
5.3683
 20
3.0558
  0
SEQEND
  8
FloorPlan
  0
POLYLINE
  8
FloorPlan
 62
     1
 66
     1
  6
CONTINUOUS
  0
VERTEX
  8
FloorPlan
 62
     1
  6
CONTINUOUS
 10
5.5200
 20
2.7930
  0
VERTEX
  8
FloorPlan
 62
     1
  6
CONTINUOUS
 10
5.3683
 20
3.0558
  0
VERTEX
  8
FloorPlan
 62
     1
  6
CONTINUOUS
 10
5.3822
 20
3.0638
  0
VERTEX
  8
FloorPlan
 62
     1
  6
CONTINUOUS
 10
5.5339
 20
2.8010
  0
VERTEX
  8
FloorPlan
 62
     1
  6
CONTINUOUS
 10
5.5200
 20
2.7930
  0
SEQEND
  8
FloorPlan
  0
ARC
  8
FloorPlan
 62
     1
  6
CONTINUOUS
 10
5.5200
 20
2.7930
 40
0.3035
 50
90.0000
 51
180.0472
  0
POLYLINE
  8
FloorPlan
 62
     1
 66
     1
  6
CONTINUOUS
  0
VERTEX
  8
FloorPlan
 62
     1
  6
CONTINUOUS
 10
5.3717
 20
3.3654
  0
VERTEX
  8
FloorPlan
 62
     1
  6
CONTINUOUS
 10
5.3717
 20
3.3654
  0
SEQEND
  8
FloorPlan
  0
POLYLINE
  8
FloorPlan
 62
     1
 66
     1
  6
CONTINUOUS
  0
VERTEX
  8
FloorPlan
 62
     1
  6
CONTINUOUS
 10
5.5235
 20
3.1026
  0
VERTEX
  8
FloorPlan
 62
     1
  6
CONTINUOUS
 10
5.3717
 20
3.3654
  0
VERTEX
  8
FloorPlan
 62
     1
  6
CONTINUOUS
 10
5.3856
 20
3.3734
  0
VERTEX
  8
FloorPlan
 62
     1
  6
CONTINUOUS
 10
5.5374
 20
3.1106
  0
VERTEX
  8
FloorPlan
 62
     1
  6
CONTINUOUS
 10
5.5235
 20
3.1026
  0
SEQEND
  8
FloorPlan
  0
ARC
  8
FloorPlan
 62
     1
  6
CONTINUOUS
 10
5.5235
 20
3.1026
 40
0.3035
 50
90.0000
 51
180.0472
  0
POLYLINE
  8
FloorPlan
 62
     1
 66
     1
  6
CONTINUOUS
  0
VERTEX
  8
FloorPlan
 62
     1
  6
CONTINUOUS
 10
5.3717
 20
3.4628
  0
VERTEX
  8
FloorPlan
 62
     1
  6
CONTINUOUS
 10
5.3717
 20
3.4628
  0
SEQEND
  8
FloorPlan
  0
POLYLINE
  8
FloorPlan
 62
     1
 66
     1
  6
CONTINUOUS
  0
VERTEX
  8
FloorPlan
 62
     1
  6
CONTINUOUS
 10
5.5235
 20
3.7256
  0
VERTEX
  8
FloorPlan
 62
     1
  6
CONTINUOUS
 10
5.3717
 20
3.4628
  0
VERTEX
  8
FloorPlan
 62
     1
  6
CONTINUOUS
 10
5.3856
 20
3.4548
  0
VERTEX
  8
FloorPlan
 62
     1
  6
CONTINUOUS
 10
5.5374
 20
3.7176
  0
VERTEX
  8
FloorPlan
 62
     1
  6
CONTINUOUS
 10
5.5235
 20
3.7256
  0
SEQEND
  8
FloorPlan
  0
ARC
  8
FloorPlan
 62
     1
  6
CONTINUOUS
 10
5.5235
 20
3.7256
 40
0.3035
 50
179.9528
 51
-90.0000
  0
TEXT
  8
FloorPlan
 62
     1
  6
CONTINUOUS
 10
5.6212
 20
3.0822
 40
0.0504
 50
-90.0000
 51
-0.0000
  1
Storage
 72
     3
 11
5.6212
 21
2.8185
  0
TEXT
  8
FloorPlan
 62
     1
  6
CONTINUOUS
 10
5.6253
 20
3.5383
 40
0.0504
 50
-90.0000
 51
-0.0000
  1
Storage
 72
     3
 11
5.6253
 21
3.2746
  0
TEXT
  8
FloorPlan
 62
     1
  6
CONTINUOUS
 10
5.6619
 20
2.6664
 40
0.0504
 50
-90.0000
 51
-0.0000
  1
Coat
 72
     3
 11
5.6619
 21
2.5089
  0
TEXT
  8
FloorPlan
 62
     1
  6
CONTINUOUS
 10
5.5418
 20
2.6664
 40
0.0504
 50
-90.0000
 51
-0.0000
  1
Rack
 72
     3
 11
5.5418
 21
2.5064
  0
POLYLINE
  8
FloorPlan
 62
     1
 66
     1
  6
CONTINUOUS
  0
VERTEX
  8
FloorPlan
 62
     1
  6
CONTINUOUS
 10
1.5853
 20
5.4081
  0
VERTEX
  8
FloorPlan
 62
     1
  6
CONTINUOUS
 10
1.5853
 20
6.1171
  0
SEQEND
  8
FloorPlan
  0
POLYLINE
  8
FloorPlan
 62
     1
 66
     1
  6
CONTINUOUS
  0
VERTEX
  8
FloorPlan
 62
     1
  6
CONTINUOUS
 10
2.2475
 20
6.1577
  0
VERTEX
  8
FloorPlan
 62
     1
  6
CONTINUOUS
 10
2.2475
 20
5.1428
  0
SEQEND
  8
FloorPlan
  0
POLYLINE
  8
FloorPlan
 62
     1
 66
     1
  6
CONTINUOUS
  0
VERTEX
  8
FloorPlan
 62
     1
  6
CONTINUOUS
 10
2.7486
 20
5.1070
  0
VERTEX
  8
FloorPlan
 62
     1
  6
CONTINUOUS
 10
2.7486
 20
6.1577
  0
SEQEND
  8
FloorPlan
  0
POLYLINE
  8
FloorPlan
 62
     1
 66
     1
  6
CONTINUOUS
  0
VERTEX
  8
FloorPlan
 62
     1
  6
CONTINUOUS
 10
2.7486
 20
5.1070
  0
VERTEX
  8
FloorPlan
 62
     1
  6
CONTINUOUS
 10
2.7486
 20
5.1070
  0
SEQEND
  8
FloorPlan
  0
POLYLINE
  8
FloorPlan
 62
     1
 66
     1
  6
CONTINUOUS
  0
VERTEX
  8
FloorPlan
 62
     1
  6
CONTINUOUS
 10
4.6702
 20
2.3940
  0
VERTEX
  8
FloorPlan
 62
     1
  6
CONTINUOUS
 10
1.0174
 20
2.3940
  0
SEQEND
  8
FloorPlan
  0
POLYLINE
  8
FloorPlan
 62
     1
 66
     1
  6
CONTINUOUS
  0
VERTEX
  8
FloorPlan
 62
     1
  6
CONTINUOUS
 10
1.0174
 20
2.3940
  0
VERTEX
  8
FloorPlan
 62
     1
  6
CONTINUOUS
 10
1.0141
 20
2.3940
  0
SEQEND
  8
FloorPlan
  0
POLYLINE
  8
FloorPlan
 62
     1
 66
     1
  6
CONTINUOUS
  0
VERTEX
  8
FloorPlan
 62
     1
  6
CONTINUOUS
 10
2.2505
 20
2.3940
  0
VERTEX
  8
FloorPlan
 62
     1
  6
CONTINUOUS
 10
2.2505
 20
2.3910
  0
SEQEND
  8
FloorPlan
  0
POLYLINE
  8
FloorPlan
 62
     1
 66
     1
  6
CONTINUOUS
  0
VERTEX
  8
FloorPlan
 62
     1
  6
CONTINUOUS
 10
2.2073
 20
2.3478
  0
VERTEX
  8
FloorPlan
 62
     1
  6
CONTINUOUS
 10
2.2073
 20
2.2729
  0
SEQEND
  8
FloorPlan
  0
POLYLINE
  8
FloorPlan
 62
     1
 66
     1
  6
CONTINUOUS
  0
VERTEX
  8
FloorPlan
 62
     1
  6
CONTINUOUS
 10
1.2482
 20
2.3940
  0
VERTEX
  8
FloorPlan
 62
     1
  6
CONTINUOUS
 10
1.2482
 20
2.3910
  0
SEQEND
  8
FloorPlan
  0
POLYLINE
  8
FloorPlan
 62
     1
 66
     1
  6
CONTINUOUS
  0
VERTEX
  8
FloorPlan
 62
     1
  6
CONTINUOUS
 10
1.2051
 20
2.3478
  0
VERTEX
  8
FloorPlan
 62
     1
  6
CONTINUOUS
 10
1.2051
 20
2.2729
  0
SEQEND
  8
FloorPlan
  0
POLYLINE
  8
FloorPlan
 62
     1
 66
     1
  6
CONTINUOUS
  0
VERTEX
  8
FloorPlan
 62
     1
  6
CONTINUOUS
 10
1.0141
 20
2.3940
  0
VERTEX
  8
FloorPlan
 62
     1
  6
CONTINUOUS
 10
1.0141
 20
4.6082
  0
SEQEND
  8
FloorPlan
  0
POLYLINE
  8
FloorPlan
 62
     1
 66
     1
  6
CONTINUOUS
  0
VERTEX
  8
FloorPlan
 62
     1
  6
CONTINUOUS
 10
3.3676
 20
5.0641
  0
VERTEX
  8
FloorPlan
 62
     1
  6
CONTINUOUS
 10
3.0047
 20
5.0642
  0
SEQEND
  8
FloorPlan
  0
POLYLINE
  8
FloorPlan
 62
     1
 66
     1
  6
CONTINUOUS
  0
VERTEX
  8
FloorPlan
 62
     1
  6
CONTINUOUS
 10
3.3676
 20
5.1076
  0
VERTEX
  8
FloorPlan
 62
     1
  6
CONTINUOUS
 10
3.1293
 20
5.1076
  0
SEQEND
  8
FloorPlan
  0
POLYLINE
  8
FloorPlan
 62
     1
 66
     1
  6
CONTINUOUS
  0
VERTEX
  8
FloorPlan
 62
     1
  6
CONTINUOUS
 10
3.1293
 20
5.1076
  0
VERTEX
  8
FloorPlan
 62
     1
  6
CONTINUOUS
 10
2.7840
 20
5.1076
  0
SEQEND
  8
FloorPlan
  0
POLYLINE
  8
FloorPlan
 62
     1
 66
     1
  6
CONTINUOUS
  0
VERTEX
  8
FloorPlan
 62
     1
  6
CONTINUOUS
 10
2.7124
 20
5.0639
  0
VERTEX
  8
FloorPlan
 62
     1
  6
CONTINUOUS
 10
3.0047
 20
5.0642
  0
SEQEND
  8
FloorPlan
  0
POLYLINE
  8
FloorPlan
 62
     1
 66
     1
  6
CONTINUOUS
  0
VERTEX
  8
FloorPlan
 62
     1
  6
CONTINUOUS
 10
4.8476
 20
2.2726
  0
VERTEX
  8
FloorPlan
 62
     1
  6
CONTINUOUS
 10
4.8291
 20
2.2726
  0
SEQEND
  8
FloorPlan
  0
POLYLINE
  8
FloorPlan
 62
     1
 66
     1
  6
CONTINUOUS
  0
VERTEX
  8
FloorPlan
 62
     1
  6
CONTINUOUS
 10
4.8291
 20
2.2700
  0
VERTEX
  8
FloorPlan
 62
     1
  6
CONTINUOUS
 10
0.8901
 20
2.2697
  0
SEQEND
  8
FloorPlan
  0
POLYLINE
  8
FloorPlan
 62
     1
 66
     1
  6
CONTINUOUS
  0
VERTEX
  8
FloorPlan
 62
     1
  6
CONTINUOUS
 10
4.8476
 20
2.3509
  0
VERTEX
  8
FloorPlan
 62
     1
  6
CONTINUOUS
 10
0.9710
 20
2.3509
  0
SEQEND
  8
FloorPlan
  0
POLYLINE
  8
FloorPlan
 62
     1
 66
     1
  6
CONTINUOUS
  0
VERTEX
  8
FloorPlan
 62
     1
  6
CONTINUOUS
 10
4.7138
 20
2.3940
  0
VERTEX
  8
FloorPlan
 62
     1
  6
CONTINUOUS
 10
4.8476
 20
2.3940
  0
SEQEND
  8
FloorPlan
  0
POLYLINE
  8
FloorPlan
 62
     1
 66
     1
  6
CONTINUOUS
  0
VERTEX
  8
FloorPlan
 62
     1
  6
CONTINUOUS
 10
12.5653
 20
2.2702
  0
VERTEX
  8
FloorPlan
 62
     1
  6
CONTINUOUS
 10
5.4664
 20
2.2700
  0
SEQEND
  8
FloorPlan
  0
POLYLINE
  8
FloorPlan
 62
     1
 66
     1
  6
CONTINUOUS
  0
VERTEX
  8
FloorPlan
 62
     1
  6
CONTINUOUS
 10
5.7534
 20
2.3509
  0
VERTEX
  8
FloorPlan
 62
     1
  6
CONTINUOUS
 10
5.2920
 20
2.3512
  0
SEQEND
  8
FloorPlan
  0
POLYLINE
  8
FloorPlan
 62
     1
 66
     1
  6
CONTINUOUS
  0
VERTEX
  8
FloorPlan
 62
     1
  6
CONTINUOUS
 10
5.2920
 20
2.3940
  0
VERTEX
  8
FloorPlan
 62
     1
  6
CONTINUOUS
 10
5.7556
 20
2.3940
  0
SEQEND
  8
FloorPlan
  0
POLYLINE
  8
FloorPlan
 62
     1
 66
     1
  6
CONTINUOUS
  0
VERTEX
  8
FloorPlan
 62
     1
  6
CONTINUOUS
 10
4.8476
 20
1.9421
  0
VERTEX
  8
FloorPlan
 62
     1
  6
CONTINUOUS
 10
4.8658
 20
1.9426
  0
VERTEX
  8
FloorPlan
 62
     1
  6
CONTINUOUS
 10
4.8839
 20
1.9441
  0
VERTEX
  8
FloorPlan
 62
     1
  6
CONTINUOUS
 10
4.9019
 20
1.9466
  0
VERTEX
  8
FloorPlan
 62
     1
  6
CONTINUOUS
 10
4.9198
 20
1.9500
  0
VERTEX
  8
FloorPlan
 62
     1
  6
CONTINUOUS
 10
4.9374
 20
1.9545
  0
VERTEX
  8
FloorPlan
 62
     1
  6
CONTINUOUS
 10
4.9548
 20
1.9599
  0
VERTEX
  8
FloorPlan
 62
     1
  6
CONTINUOUS
 10
4.9718
 20
1.9663
  0
VERTEX
  8
FloorPlan
 62
     1
  6
CONTINUOUS
 10
4.9885
 20
1.9736
  0
VERTEX
  8
FloorPlan
 62
     1
  6
CONTINUOUS
 10
5.0047
 20
1.9818
  0
VERTEX
  8
FloorPlan
 62
     1
  6
CONTINUOUS
 10
5.0205
 20
1.9909
  0
VERTEX
  8
FloorPlan
 62
     1
  6
CONTINUOUS
 10
5.0357
 20
2.0008
  0
VERTEX
  8
FloorPlan
 62
     1
  6
CONTINUOUS
 10
5.0504
 20
2.0116
  0
VERTEX
  8
FloorPlan
 62
     1
  6
CONTINUOUS
 10
5.0645
 20
2.0232
  0
VERTEX
  8
FloorPlan
 62
     1
  6
CONTINUOUS
 10
5.0779
 20
2.0355
  0
VERTEX
  8
FloorPlan
 62
     1
  6
CONTINUOUS
 10
5.0906
 20
2.0485
  0
VERTEX
  8
FloorPlan
 62
     1
  6
CONTINUOUS
 10
5.1025
 20
2.0622
  0
VERTEX
  8
FloorPlan
 62
     1
  6
CONTINUOUS
 10
5.1137
 20
2.0766
  0
VERTEX
  8
FloorPlan
 62
     1
  6
CONTINUOUS
 10
5.1241
 20
2.0915
  0
VERTEX
  8
FloorPlan
 62
     1
  6
CONTINUOUS
 10
5.1336
 20
2.1070
  0
VERTEX
  8
FloorPlan
 62
     1
  6
CONTINUOUS
 10
5.1423
 20
2.1230
  0
VERTEX
  8
FloorPlan
 62
     1
  6
CONTINUOUS
 10
5.1501
 20
2.1394
  0
VERTEX
  8
FloorPlan
 62
     1
  6
CONTINUOUS
 10
5.1570
 20
2.1563
  0
VERTEX
  8
FloorPlan
 62
     1
  6
CONTINUOUS
 10
5.1629
 20
2.1735
  0
VERTEX
  8
FloorPlan
 62
     1
  6
CONTINUOUS
 10
5.1679
 20
2.1910
  0
VERTEX
  8
FloorPlan
 62
     1
  6
CONTINUOUS
 10
5.1719
 20
2.2087
  0
VERTEX
  8
FloorPlan
 62
     1
  6
CONTINUOUS
 10
5.1749
 20
2.2267
  0
VERTEX
  8
FloorPlan
 62
     1
  6
CONTINUOUS
 10
5.1770
 20
2.2448
  0
VERTEX
  8
FloorPlan
 62
     1
  6
CONTINUOUS
 10
5.1780
 20
2.2629
  0
VERTEX
  8
FloorPlan
 62
     1
  6
CONTINUOUS
 10
5.1781
 20
2.2696
  0
SEQEND
  8
FloorPlan
  0
POLYLINE
  8
FloorPlan
 62
     1
 66
     1
  6
CONTINUOUS
  0
VERTEX
  8
FloorPlan
 62
     1
  6
CONTINUOUS
 10
4.8476
 20
2.3940
  0
VERTEX
  8
FloorPlan
 62
     1
  6
CONTINUOUS
 10
4.8476
 20
2.2726
  0
SEQEND
  8
FloorPlan
  0
POLYLINE
  8
FloorPlan
 62
     1
 66
     1
  6
CONTINUOUS
  0
VERTEX
  8
FloorPlan
 62
     1
  6
CONTINUOUS
 10
5.2920
 20
2.2696
  0
VERTEX
  8
FloorPlan
 62
     1
  6
CONTINUOUS
 10
5.1781
 20
2.2696
  0
VERTEX
  8
FloorPlan
 62
     1
  6
CONTINUOUS
 10
5.1781
 20
2.3936
  0
VERTEX
  8
FloorPlan
 62
     1
  6
CONTINUOUS
 10
5.2920
 20
2.3936
  0
SEQEND
  8
FloorPlan
  0
POLYLINE
  8
FloorPlan
 62
     1
 66
     1
  6
CONTINUOUS
  0
VERTEX
  8
FloorPlan
 62
     1
  6
CONTINUOUS
 10
5.2930
 20
2.3210
  0
VERTEX
  8
FloorPlan
 62
     1
  6
CONTINUOUS
 10
5.4664
 20
2.3210
  0
SEQEND
  8
FloorPlan
  0
POLYLINE
  8
FloorPlan
 62
     1
 66
     1
  6
CONTINUOUS
  0
VERTEX
  8
FloorPlan
 62
     1
  6
CONTINUOUS
 10
5.2930
 20
2.3049
  0
VERTEX
  8
FloorPlan
 62
     1
  6
CONTINUOUS
 10
5.4664
 20
2.3059
  0
SEQEND
  8
FloorPlan
  0
POLYLINE
  8
FloorPlan
 62
     1
 66
     1
  6
CONTINUOUS
  0
VERTEX
  8
FloorPlan
 62
     1
  6
CONTINUOUS
 10
5.2920
 20
2.3512
  0
VERTEX
  8
FloorPlan
 62
     1
  6
CONTINUOUS
 10
5.1781
 20
2.3512
  0
SEQEND
  8
FloorPlan
  0
POLYLINE
  8
FloorPlan
 62
     1
 66
     1
  6
CONTINUOUS
  0
VERTEX
  8
FloorPlan
 62
     1
  6
CONTINUOUS
 10
5.2920
 20
2.3512
  0
VERTEX
  8
FloorPlan
 62
     1
  6
CONTINUOUS
 10
5.2920
 20
2.2696
  0
VERTEX
  8
FloorPlan
 62
     1
  6
CONTINUOUS
 10
5.4664
 20
2.2700
  0
SEQEND
  8
FloorPlan
  0
POLYLINE
  8
FloorPlan
 62
     1
 66
     1
  6
CONTINUOUS
  0
VERTEX
  8
FloorPlan
 62
     1
  6
CONTINUOUS
 10
5.4664
 20
2.3512
  0
VERTEX
  8
FloorPlan
 62
     1
  6
CONTINUOUS
 10
5.4664
 20
2.2700
  0
SEQEND
  8
FloorPlan
  0
POLYLINE
  8
LotLine
 62
     1
 66
     1
  6
CONTINUOUS
  0
VERTEX
  8
LotLine
 62
     1
  6
CONTINUOUS
 10
-0.0346
 20
0.5360
  0
VERTEX
  8
LotLine
 62
     1
  6
CONTINUOUS
 10
-0.0346
 20
6.5463
  0
VERTEX
  8
LotLine
 62
     1
  6
CONTINUOUS
 10
14.4711
 20
6.5463
  0
VERTEX
  8
LotLine
 62
     1
  6
CONTINUOUS
 10
14.4711
 20
0.5360
  0
VERTEX
  8
LotLine
 62
     1
  6
CONTINUOUS
 10
-0.0346
 20
0.5360
  0
SEQEND
  8
LotLine
  0
POLYLINE
  8
LotLine
 62
     1
 66
     1
  6
CONTINUOUS
  0
VERTEX
  8
LotLine
 62
     1
  6
CONTINUOUS
 10
-0.0346
 20
0.4719
  0
VERTEX
  8
LotLine
 62
     1
  6
CONTINUOUS
 10
-0.0346
 20
0.3011
  0
SEQEND
  8
LotLine
  0
POLYLINE
  8
LotLine
 62
     1
 66
     1
  6
CONTINUOUS
  0
VERTEX
  8
LotLine
 62
     1
  6
CONTINUOUS
 10
14.4711
 20
0.4719
  0
VERTEX
  8
LotLine
 62
     1
  6
CONTINUOUS
 10
14.4711
 20
0.3011
  0
SEQEND
  8
LotLine
  0
TEXT
  8
LotLine
 62
     1
  6
CONTINUOUS
 10
7.2989
 20
0.3310
 40
0.0504
 50
0.0000
 51
-0.0000
  1
145'
 72
     3
 11
7.4228
 21
0.3310
  0
POLYLINE
  8
LotLine
 62
     1
 66
     1
  6
CONTINUOUS
  0
VERTEX
  8
LotLine
 62
     1
  6
CONTINUOUS
 10
7.5125
 20
0.3523
  0
VERTEX
  8
LotLine
 62
     1
  6
CONTINUOUS
 10
14.4720
 20
0.3523
  0
SEQEND
  8
LotLine
  0
POLYLINE
  8
LotLine
 62
     1
 66
     1
  6
CONTINUOUS
  0
VERTEX
  8
LotLine
 62
     1
  6
CONTINUOUS
 10
14.4216
 20
0.3624
  0
VERTEX
  8
LotLine
 62
     1
  6
CONTINUOUS
 10
14.4720
 20
0.3523
  0
VERTEX
  8
LotLine
 62
     1
  6
CONTINUOUS
 10
14.4216
 20
0.3423
  0
SEQEND
  8
LotLine
  0
POLYLINE
  8
LotLine
 62
     1
 66
     1
  6
CONTINUOUS
  0
VERTEX
  8
LotLine
 62
     1
  6
CONTINUOUS
 10
7.1922
 20
0.3506
  0
VERTEX
  8
LotLine
 62
     1
  6
CONTINUOUS
 10
-0.0351
 20
0.3506
  0
SEQEND
  8
LotLine
  0
POLYLINE
  8
LotLine
 62
     1
 66
     1
  6
CONTINUOUS
  0
VERTEX
  8
LotLine
 62
     1
  6
CONTINUOUS
 10
0.0153
 20
0.3405
  0
VERTEX
  8
LotLine
 62
     1
  6
CONTINUOUS
 10
-0.0351
 20
0.3506
  0
VERTEX
  8
LotLine
 62
     1
  6
CONTINUOUS
 10
0.0153
 20
0.3607
  0
SEQEND
  8
LotLine
  0
POLYLINE
  8
LotLine
 62
     1
 66
     1
  6
CONTINUOUS
  0
VERTEX
  8
LotLine
 62
     1
  6
CONTINUOUS
 10
-0.0785
 20
6.5444
  0
VERTEX
  8
LotLine
 62
     1
  6
CONTINUOUS
 10
-0.2461
 20
6.5444
  0
SEQEND
  8
LotLine
  0
POLYLINE
  8
LotLine
 62
     1
 66
     1
  6
CONTINUOUS
  0
VERTEX
  8
LotLine
 62
     1
  6
CONTINUOUS
 10
-0.0785
 20
0.5445
  0
VERTEX
  8
LotLine
 62
     1
  6
CONTINUOUS
 10
-0.2415
 20
0.5445
  0
SEQEND
  8
LotLine
  0
TEXT
  8
LotLine
 62
     1
  6
CONTINUOUS
 10
-0.2706
 20
3.7046
 40
0.0504
 50
0.0000
 51
-0.0000
  1
60'
 72
     3
 11
-0.1745
 21
3.7046
  0
POLYLINE
  8
LotLine
 62
     1
 66
     1
  6
CONTINUOUS
  0
VERTEX
  8
LotLine
 62
     1
  6
CONTINUOUS
 10
-0.2066
 20
3.8327
  0
VERTEX
  8
LotLine
 62
     1
  6
CONTINUOUS
 10
-0.2066
 20
6.5445
  0
SEQEND
  8
LotLine
  0
POLYLINE
  8
LotLine
 62
     1
 66
     1
  6
CONTINUOUS
  0
VERTEX
  8
LotLine
 62
     1
  6
CONTINUOUS
 10
-0.2166
 20
6.4941
  0
VERTEX
  8
LotLine
 62
     1
  6
CONTINUOUS
 10
-0.2066
 20
6.5445
  0
VERTEX
  8
LotLine
 62
     1
  6
CONTINUOUS
 10
-0.1965
 20
6.4941
  0
SEQEND
  8
LotLine
  0
POLYLINE
  8
LotLine
 62
     1
 66
     1
  6
CONTINUOUS
  0
VERTEX
  8
LotLine
 62
     1
  6
CONTINUOUS
 10
-0.2066
 20
3.6192
  0
VERTEX
  8
LotLine
 62
     1
  6
CONTINUOUS
 10
-0.2066
 20
0.5445
  0
SEQEND
  8
LotLine
  0
POLYLINE
  8
LotLine
 62
     1
 66
     1
  6
CONTINUOUS
  0
VERTEX
  8
LotLine
 62
     1
  6
CONTINUOUS
 10
-0.1965
 20
0.5949
  0
VERTEX
  8
LotLine
 62
     1
  6
CONTINUOUS
 10
-0.2066
 20
0.5445
  0
VERTEX
  8
LotLine
 62
     1
  6
CONTINUOUS
 10
-0.2166
 20
0.5949
  0
SEQEND
  8
LotLine
  0
TEXT
  8
LotLine
 62
     1
  6
CONTINUOUS
 10
1.0564
 20
1.3896
 40
0.0504
 50
0.0000
 51
-0.0000
  1
17.4'
 72
     3
 11
1.1941
 21
1.3896
  0
TEXT
  8
LotLine
 62
     1
  6
CONTINUOUS
 10
0.3669
 20
2.3203
 40
0.0504
 50
0.0000
 51
-0.0000
  1
9.3'
 72
     3
 11
0.4770
 21
2.3203
  0
POLYLINE
  8
LotLine
 62
     1
 66
     1
  6
CONTINUOUS
  0
VERTEX
  8
LotLine
 62
     1
  6
CONTINUOUS
 10
1.1160
 20
1.4685
  0
VERTEX
  8
LotLine
 62
     1
  6
CONTINUOUS
 10
1.1160
 20
2.2709
  0
SEQEND
  8
LotLine
  0
POLYLINE
  8
LotLine
 62
     1
 66
     1
  6
CONTINUOUS
  0
VERTEX
  8
LotLine
 62
     1
  6
CONTINUOUS
 10
1.1059
 20
2.2206
  0
VERTEX
  8
LotLine
 62
     1
  6
CONTINUOUS
 10
1.1160
 20
2.2709
  0
VERTEX
  8
LotLine
 62
     1
  6
CONTINUOUS
 10
1.1260
 20
2.2206
  0
SEQEND
  8
LotLine
  0
POLYLINE
  8
LotLine
 62
     1
 66
     1
  6
CONTINUOUS
  0
VERTEX
  8
LotLine
 62
     1
  6
CONTINUOUS
 10
1.1160
 20
1.3672
  0
VERTEX
  8
LotLine
 62
     1
  6
CONTINUOUS
 10
1.1160
 20
0.5364
  0
SEQEND
  8
LotLine
  0
POLYLINE
  8
LotLine
 62
     1
 66
     1
  6
CONTINUOUS
  0
VERTEX
  8
LotLine
 62
     1
  6
CONTINUOUS
 10
1.1260
 20
0.5868
  0
VERTEX
  8
LotLine
 62
     1
  6
CONTINUOUS
 10
1.1160
 20
0.5364
  0
VERTEX
  8
LotLine
 62
     1
  6
CONTINUOUS
 10
1.1059
 20
0.5868
  0
SEQEND
  8
LotLine
  0
POLYLINE
  8
LotLine
 62
     1
 66
     1
  6
CONTINUOUS
  0
VERTEX
  8
LotLine
 62
     1
  6
CONTINUOUS
 10
0.5000
 20
2.3398
  0
VERTEX
  8
LotLine
 62
     1
  6
CONTINUOUS
 10
0.8890
 20
2.3398
  0
SEQEND
  8
LotLine
  0
POLYLINE
  8
LotLine
 62
     1
 66
     1
  6
CONTINUOUS
  0
VERTEX
  8
LotLine
 62
     1
  6
CONTINUOUS
 10
0.8386
 20
2.3499
  0
VERTEX
  8
LotLine
 62
     1
  6
CONTINUOUS
 10
0.8890
 20
2.3398
  0
VERTEX
  8
LotLine
 62
     1
  6
CONTINUOUS
 10
0.8386
 20
2.3298
  0
SEQEND
  8
LotLine
  0
POLYLINE
  8
LotLine
 62
     1
 66
     1
  6
CONTINUOUS
  0
VERTEX
  8
LotLine
 62
     1
  6
CONTINUOUS
 10
0.3460
 20
2.3398
  0
VERTEX
  8
LotLine
 62
     1
  6
CONTINUOUS
 10
-0.0350
 20
2.3398
  0
SEQEND
  8
LotLine
  0
POLYLINE
  8
LotLine
 62
     1
 66
     1
  6
CONTINUOUS
  0
VERTEX
  8
LotLine
 62
     1
  6
CONTINUOUS
 10
0.0154
 20
2.3298
  0
VERTEX
  8
LotLine
 62
     1
  6
CONTINUOUS
 10
-0.0350
 20
2.3398
  0
VERTEX
  8
LotLine
 62
     1
  6
CONTINUOUS
 10
0.0154
 20
2.3499
  0
SEQEND
  8
LotLine
  0
POLYLINE
  8
LotLine
 62
     1
 66
     1
  6
DASHED
  0
VERTEX
  8
LotLine
 62
     1
  6
DASHED
 10
0.9370
 20
0.6495
  0
VERTEX
  8
LotLine
 62
     1
  6
DASHED
 10
0.9370
 20
2.1655
  0
VERTEX
  8
LotLine
 62
     1
  6
DASHED
 10
14.2513
 20
2.1655
  0
VERTEX
  8
LotLine
 62
     1
  6
DASHED
 10
14.2513
 20
0.6495
  0
VERTEX
  8
LotLine
 62
     1
  6
DASHED
 10
0.9370
 20
0.6495
  0
SEQEND
  8
LotLine
  0
TEXT
  8
LotLine
 62
     1
  6
CONTINUOUS
 10
6.4401
 20
1.2705
 40
0.3622
 50
0.0000
 51
-0.0000
  1
PARKING
 72
     3
 11
8.4686
 21
1.2705
  0
TEXT
  8
LotLine
 62
     1
  6
CONTINUOUS
 10
7.0745
 20
0.1157
 40
0.0504
 50
0.0000
 51
-0.0000
  1
N. 127 th. Street
 72
     3
 11
7.6876
 21
0.1157
  0
POLYLINE
  8
LotLine
 62
     1
 66
     1
  6
CONTINUOUS
  0
VERTEX
  8
LotLine
 62
     1
  6
CONTINUOUS
 10
7.7297
 20
0.1362
  0
VERTEX
  8
LotLine
 62
     1
  6
CONTINUOUS
 10
8.0303
 20
0.1362
  0
SEQEND
  8
LotLine
  0
POLYLINE
  8
LotLine
 62
     1
 66
     1
  6
CONTINUOUS
  0
VERTEX
  8
LotLine
 62
     1
  6
CONTINUOUS
 10
7.9799
 20
0.1463
  0
VERTEX
  8
LotLine
 62
     1
  6
CONTINUOUS
 10
8.0303
 20
0.1362
  0
VERTEX
  8
LotLine
 62
     1
  6
CONTINUOUS
 10
7.9799
 20
0.1261
  0
SEQEND
  8
LotLine
  0
POLYLINE
  8
LotLine
 62
     1
 66
     1
  6
CONTINUOUS
  0
VERTEX
  8
LotLine
 62
     1
  6
CONTINUOUS
 10
7.0264
 20
0.1362
  0
VERTEX
  8
LotLine
 62
     1
  6
CONTINUOUS
 10
6.7258
 20
0.1362
  0
SEQEND
  8
LotLine
  0
POLYLINE
  8
LotLine
 62
     1
 66
     1
  6
CONTINUOUS
  0
VERTEX
  8
LotLine
 62
     1
  6
CONTINUOUS
 10
6.7762
 20
0.1261
  0
VERTEX
  8
LotLine
 62
     1
  6
CONTINUOUS
 10
6.7258
 20
0.1362
  0
VERTEX
  8
LotLine
 62
     1
  6
CONTINUOUS
 10
6.7762
 20
0.1463
  0
SEQEND
  8
LotLine
  0
TEXT
  8
LotLine
 62
     1
  6
CONTINUOUS
 10
-0.4128
 20
4.9964
 40
0.0504
 50
-90.0000
 51
-0.0000
  1
12704 W. Arden Place
 72
     3
 11
-0.4128
 21
4.2036
  0
POLYLINE
  8
LotLine
 62
     1
 66
     1
  6
CONTINUOUS
  0
VERTEX
  8
LotLine
 62
     1
  6
CONTINUOUS
 10
-0.3854
 20
5.0293
  0
VERTEX
  8
LotLine
 62
     1
  6
CONTINUOUS
 10
-0.3854
 20
5.3298
  0
SEQEND
  8
LotLine
  0
POLYLINE
  8
LotLine
 62
     1
 66
     1
  6
CONTINUOUS
  0
VERTEX
  8
LotLine
 62
     1
  6
CONTINUOUS
 10
-0.3955
 20
5.2794
  0
VERTEX
  8
LotLine
 62
     1
  6
CONTINUOUS
 10
-0.3854
 20
5.3298
  0
VERTEX
  8
LotLine
 62
     1
  6
CONTINUOUS
 10
-0.3753
 20
5.2794
  0
SEQEND
  8
LotLine
  0
POLYLINE
  8
LotLine
 62
     1
 66
     1
  6
CONTINUOUS
  0
VERTEX
  8
LotLine
 62
     1
  6
CONTINUOUS
 10
-0.3854
 20
4.1566
  0
VERTEX
  8
LotLine
 62
     1
  6
CONTINUOUS
 10
-0.3854
 20
3.8561
  0
SEQEND
  8
LotLine
  0
POLYLINE
  8
LotLine
 62
     1
 66
     1
  6
CONTINUOUS
  0
VERTEX
  8
LotLine
 62
     1
  6
CONTINUOUS
 10
-0.3753
 20
3.9064
  0
VERTEX
  8
LotLine
 62
     1
  6
CONTINUOUS
 10
-0.3854
 20
3.8561
  0
VERTEX
  8
LotLine
 62
     1
  6
CONTINUOUS
 10
-0.3955
 20
3.9064
  0
SEQEND
  8
LotLine
  0
TEXT
  8
Windows
 62
     1
  6
CONTINUOUS
 10
3.1340
 20
2.2042
 40
0.0504
 50
0.0000
 51
-0.0000
  1
123.5Wx65.75
 72
     3
 11
3.5862
 21
2.2042
  0
TEXT
  8
Windows
 62
     1
  6
CONTINUOUS
 10
0.7795
 20
5.8571
 40
0.0504
 50
-90.0000
 51
-0.0000
  1
44Wx57.75
 72
     3
 11
0.7795
 21
5.4779
  0
TEXT
  8
Windows
 62
     1
  6
CONTINUOUS
 10
1.1517
 20
6.2726
 40
0.0504
 50
0.0000
 51
-0.0000
  1
44.25Wx57.5
 72
     3
 11
1.5888
 21
6.2726
  0
TEXT
  8
Windows
 62
     1
  6
CONTINUOUS
 10
1.8615
 20
6.2726
 40
0.0504
 50
0.0000
 51
-0.0000
  1
20.5Wx49.5
 72
     3
 11
2.2495
 21
6.2726
  0
TEXT
  8
Windows
 62
     1
  6
CONTINUOUS
 10
3.1686
 20
6.2813
 40
0.0504
 50
0.0000
 51
-0.0000
  1
123.25Wx66
 72
     3
 11
3.5604
 21
6.2813
  0
TEXT
  8
Windows
 62
     1
  6
CONTINUOUS
 10
4.7613
 20
6.2639
 40
0.0504
 50
0.0000
 51
-0.0000
  1
124Wx65.5
 72
     3
 11
5.1141
 21
6.2639
  0
TEXT
  8
Windows
 62
     1
  6
CONTINUOUS
 10
7.0451
 20
2.1955
 40
0.0504
 50
0.0000
 51
-0.0000
  1
60.75Wx64.5
 72
     3
 11
7.4746
 21
2.1955
  0
TEXT
  8
Windows
 62
     1
  6
CONTINUOUS
 10
9.0274
 20
2.2042
 40
0.0504
 50
0.0000
 51
-0.0000
  1
60.75Wx64.75
 72
     3
 11
9.5010
 21
2.2042
  0
TEXT
  8
Windows
 62
     1
  6
CONTINUOUS
 10
7.0364
 20
6.2640
 40
0.0504
 50
-0.0008
 51
-0.0008
  1
60.75Wx64.5
 72
     3
 11
7.4660
 21
6.2639
  0
TEXT
  8
Windows
 62
     1
  6
CONTINUOUS
 10
9.0187
 20
6.2726
 40
0.0504
 50
0.0000
 51
-0.0000
  1
60.75Wx64.75
 72
     3
 11
9.4924
 21
6.2726
  0
TEXT
  8
Windows
 62
     1
  6
CONTINUOUS
 10
0.8015
 20
3.6991
 40
0.0504
 50
-90.0000
 51
-0.0000
  1
123.25Wx67.25
 72
     3
 11
0.8015
 21
3.2028
  0
TEXT
  8
Windows
 62
     1
  6
CONTINUOUS
 10
1.4101
 20
2.1995
 40
0.0504
 50
0.0000
 51
-0.0000
  1
123.25Wx67.25
 72
     3
 11
1.9065
 21
2.1995
  0
TEXT
  8
Windows
 62
     1
  6
CONTINUOUS
 10
5.2645
 20
2.2042
 40
0.0504
 50
0.0000
 51
-0.0000
  1
21Wx60
 72
     3
 11
5.5127
 21
2.2042
  0
ENDSEC
  0
EOF
